Oops, an error
Loading. Please wait.

20Th Century Boy Tab

version 1
version 1

Whole song

Interactive

100,195 views 121 this week
4 commentsread comments
1 2 3 4 5
x 25
add to favorites
launch autoscroll
font size
0
reset
how to read this tab
guitar tuner
Autoscroll
slow
fast
+/-
esc
set tempo
stop
Help us to improve Ultimate-Guitar.com Take our survey!
×
T. Rex              20th Century boy

[Intro]
E, E      (oww)
e-------------------------------------|
B-------------------------------------|
G----1--------------------------------|
D----2--------------------------------|
A----2--------------------------------|
E---------0-0-3-0---3b4--0--3b4--0----|
                                                      (repeat)
[Verse]
This is a blues style riff.
e---------------------------|
B----2-2--4--2-2--4---------|
G----2-2--4--2-2--4---------|
D----2-2--4--2-2--4---------|
A---------------------------|
E---------------------------|
    (friends say its fine...) (repeat)

Then repeat intro then repeat verse again then it goes to the bridge.

[Bridge]
             A
(and its plain to see)
             B
(you were meant for me)
             E
(I'm your boy 20th century toy)

Back to intro, verse, intro, verse, then bridge then the chorus.

[Chorus]
(D)         (C)(D)                        (F)*  (D)
20th century boy, I wanna be your toy


these are best played as barre chords with the F played on the 10th fret

Tabbed by Phil Sellars 7th July 2001
Suggest correction
comments
print report bad tab
4 comments total. Showing first comments.
+1 reply
poornewf 10 May 21, 2006 11:23 AM

the final chords - the d cf barres should have 2 base notes as opposed to a normal barre chord

0 reply
ajmoore21 82 Jan 26, 2008 03:26 PM

good thnx!

+1 reply
Led Zep fan 60 Aug 10, 2013 12:59 AM

whats up with all the tab missing in the "blues style riff" ? it makes it hard to read. Other wise good tab ;)

guest
You may want to rate the tab now too:
select rating
Wanna post a correction for this tab? Suggest correction