Oops, an error
Loading. Please wait.

20Th Century Boy tab

version 3
version 3

Whole song

Interactive

by T. Rex
39,682 views 18 this week
1 commentread comment
1 2 3 4 5
x 7
add to favorites
×
Save as Personal and add changes to this tab that will be seen only by you. Learn more ›
×
You can save this tab as Personal to edit and correct it or add notes. All changes will be seen only by you. Learn more »
launch autoscroll
font size
0
reset
how to read this tab
guitar tuner
backing track
0:00
0:00
edit
Autoscroll
slow
fast
+/-
esc
set tempo
stop
Author
This is a very simple song but i like it, have fun, please rate.
Standard Tuning.

   E   E
e|-------------------------------------------------------|
B|-------------------------------------------------------|
G|-1---1-------------------------------------------------|
D|-2---2---OWWW!----2----2---2---2--2--2--2--2-----------|
A|-2---2------------2----2---2---2--2--2--2--2-----------|
E|---------------------------3------3-----3--------------|


[Part A]

e|-------------------------------------------------------|
B|-------------------------------------------------------|
G|-------------------------------------------------------|     
D|--2----2---2---2--2--2--2--2---------------------------|
A|--2----2---2---2--2--2--2--2---------------------------|
E|-----------3------3-----3------------------------------|(x3)

[Verse]
e|---------------------------------------------|
B|---------------------------------------------|
G|---2--2---x--x--2--x--x----------------------|
D|---2--2---x--x--2--x--x----------------------|
A|---------------------------------------------|
E|---------------------------------------------|
continue this muted strumming throughout the verse,
listen to the song to get the rythm correct. Then

[Part A]

e|-------------------------------------------------------|
B|-------------------------------------------------------|
G|-------------------------------------------------------|     
D|--2----2---2---2--2--2--2--2---------------------------|
A|--2----2---2---2--2--2--2--2---------------------------|
E|-----------3------3-----3------------------------------|(x2)

[Verse]
e|---------------------------------------------|
B|---------------------------------------------|
G|---2--2---x--x--2--x--x----------------------|
D|---2--2---x--x--2--x--x----------------------|
A|---------------------------------------------|
E|---------------------------------------------|

[Part A]

e|-------------------------------------------------------|
B|-------------------------------------------------------|
G|-------------------------------------------------------|     
D|--2----2---2---2--2--2--2--2---------------------------|
A|--2----2---2---2--2--2--2--2---------------------------|
E|-----------3------3-----3------------------------------|(x2)

[Chorus]
 ....and its plain to see you were meant for me yeh
e|---------------------------------------------------|
B|---------------------------------------------------|
G|---2------------------------------4-----4---4---4--|
D|---2------------------------------4-----4---4---4--|
A|----------------------------------2-----2---2---2--|
E|---------------------------------------------------|

 im your boy, your 20 century toy
e|---------------------------------|
B|---------------------------------|
G|---------------------------------|
D|--2------------------------------|
A|--2------------------------------|
E|---------------------------------|


[Part A]

e|-------------------------------------------------------|
B|-------------------------------------------------------|
G|-------------------------------------------------------|     
D|--2----2---2---2--2--2--2--2---------------------------|
A|--2----2---2---2--2--2--2--2---------------------------|
E|-----------3------3-----3------------------------------|(x2)

[Verse]
[Part A]
[Verse]
[Chorus]

[Bridge]

 ...20.....cent..ury....toy....i..wan...na...be....your..boy
e|-----------------------------------------------------------------|
B|-----------------------------------------------------------------|
G|-9---9----9---7--7-----9-----9----9----9----9-----12----9--------|
D|-9---9----9---7--7-----9-----7----7----7----7-----10----7--------|   
A|-7---7----7---5--5-----7-----7----7----7----7-----10----7--------|
E|-----------------------------------------------------------------|(x4)

[Verse]
[Part A]
[Verse]
[Part A]
[Chorus]
[Bridge]

play an Em til fade -

e|-0-|
B|-0-|
G|-0-|
D|-2-|
A|-2-|
E|-0-|



************************************

| x  Dead note

************************************

            
            
Suggest correction
Creating personal tab
Creating personal tab
You can edit any tab online and save it as your Personal.

You can edit, replace or remove any tab part or add personal notes – all changes will be seen only by you.

Personal tabs can be accessed anytime from any device, even offline.
Learn more »
comments
print report bad tab
1 comment total.
0 reply
aimprod 10 Jul 13, 2008 04:48 AM

Well done for getting it the most accurate Dan. Intro works better bending low E 2 fret up to 3 using index finger from A string fret 2, and then a final flick on and off with pinky on E 3rd fret in my humble opinion.
Steve

guest
You may want to rate the tab now too:
select rating
Wanna post a correction for this tab? Suggest correction