Oops, an error
Loading. Please wait.

Bang A Gong Get It On Tab

version 1
version 1

Whole song

Interactive

Video

73,302 views 207 this week
1 commentread comment
1 2 3 4 5
excellent!
x 19
add to favorites
launch autoscroll
font size
0
reset
how to read this tab
guitar tuner
Autoscroll
slow
fast
+/-
esc
set tempo
stop
Help us to improve Ultimate-Guitar.com Take our survey!
×
Author
-------------------------------------------------------------------------------
                         BANG A GONG (GET IT ON) - T. Rex
-------------------------------------------------------------------------------
Tabbed by: Ben Aitken
Email: ben.j.aitken@gmail.com

Tuning: G1 Electric, standard
        G2 Electric, standard

E5    |0 2 2 x x x|
E6    |0 4 x x x x|
A7    |x 0 2 0 2 x| (For first verse)
A7    |x 0 2 0 2 3| (For other verses)
G5    |3 5 x x x x|
 
|E5  E6 E5  E6|E5  E6 E5  E6|2x   

 |E5  E6  E5  E6  |E5    E6   E5   E6|E5  E6 E5  E6|E5    E6   E5   E6|
                                                            Well you're
e|----------------|------------------|-------------|------------------|
B|----5----5------|--5--5--5---------|----5----5---|--5--5--5---------|
G|----4----4------|--4--4--4---------|----4----4---|--4--4--4---------|
D|----------------|------------------|-------------|------------------|
A|----------------|------------------|-------------|------------------|
E|----------------|------------2b3r2-|-0-----------|------------2b3r2-|

 |E5                      |A7                        |                 
 Dirty and sweet, clad in black don't look back and I 
e|------------------------|
B|------------------------|
G|------------------------|
D|------------------------|
A|------------------------|
E|-0----------------------|

 |E5    E6 E5 E6 |A7                  |E5  E6 E5 E6|E5   E6 E5 E6|       
 Love you, you're dirty and sweet, oh yeah             Well you're
e|---------------|--------------------|------------|-------------|
B|----5----5-----|--------------------|--5-----5---|--5--5--5----|
G|----4----4-----|--------------------|--4-----4---|--4--4--4----|
D|---------------|--------------------|------------|-------------|
A|---------------|--------------------|------------|-------------|
E|---------------|--------------------|------------|-------------|
            
|E5                                  |A7
Slim and you're weak, you've got the teeth of the hydra u-
 
 |E5             |A7                       |E5  E6 E5 E6|E5   E6 E5 E6|
 Pon you, you're dirty sweet and you're my girl                 Get it
e|---------------|-------------------------|------------|-------------|
B|----5----5-----|-------------------------|--5-----5---|--5--5--5----|
G|----4----4-----|-------------------------|--4-----4---|--4--4--4----|
D|---------------|-------------------------|------------|-------------|
A|---------------|-------------------------|------------|-------------|
E|---------------|-------------------------|------------|-------------|


  |G5       |A5           |E5  E6 E5 E6|E5   E6 E5 E6|
  On, bang a gong, get it on                    Get it
e|                        |------------|-------------|
B|                        |----5-----5-|----5--5--5--|
G|                        |----4-----4-|----4--4--4--|
D|                        |------------|-------------|
A|                        |------------|-------------|
E|                        |------------|-------------|
                                

  |G5       |A5           |E5  E6 E5 E6|E5   E6 E5 E6|E5  E6 E5 E6|E5   E6 E5 E6|  
  On, bang a gong, get it on                                         Well you're
e|                        |------------|-------------|------------|-------------|
B|                        |----5-----5-|----5--5--5--|----5-----5-|----5--5--5--|
G|                        |----4-----4-|----4--4--4--|----4-----4-|----4--4--4--|
D|                        |------------|-------------|------------|-------------|
A|                        |------------|-------------|------------|-------------|
E|                        |------------|-------------|------------|-------------|

 |E5                            |A7                 |
 Built like a car, you've got a hub cap diamond star 
e|------------------------------|-----3--------3----|
B|------------5-------5---------|-----2--------2----|
G|------------4-------4---------|-------------------|
D|------------------------------|-------------------|
A|------------------------------|-------------------|
E|------------------------------|-------------------|

 |E5          |A7                  |E5  E6 E5 E6|E5   E6 E5 E6|
 Halo, you're built like a car, oh yeah          Well you're an
e|------------|--------------------|------------|-------------|
B|--5----5----|--------------------|--5-----5---|--5--5--5----|
G|--4----4----|--------------------|--4-----4---|--4--4--4----|
D|------------|--------------------|------------|-------------|
A|------------|--------------------|------------|-------------|
E|------------|--------------------|------------|-------------|

|E5                       |A7                          |
Untamed youth, that's the truth with your cloak full of

 |E5            |A7                       |E5  E6 E5 E6|E5   E6 E5 E6|
 Eagles, you're dirty sweet and you're my girl                  Get it
e|--------------|-------------------------|------------|-------------|
B|----5----5----|-------------------------|--5-----5---|--5--5--5----|
G|----4----4----|-------------------------|--4-----4---|--4--4--4----|
D|--------------|-------------------------|------------|-------------|
A|--------------|-------------------------|------------|-------------|
E|--------------|-------------------------|------------|-------------|

On, bang a gong, get it on

         |G5       |A5           |E5  E6 E5 E6|E5   E6 E5 E6|E5  E6 E5 E6|E5    E6    E5   E6|  
  Get it on, bang a gong, get it on                                                Well you're
e|                               |------------|-------------|------------|-------------------|
B|                               |----5-----5-|----5--5--5--|----5-----5-|--5--5--5----------|
G|                               |----4-----4-|----4--4--4--|----4-----4-|--4--4--4----------|
D|                               |------------|-------------|------------|-------------------|
A|                               |------------|-------------|------------|-------------------|
E|                               |------------|-------------|------------|------------2b3r2--|

 Windy and wild, you've got the blues in your shoes and your 
e|-----------------------------|
B|-----------------------------|
G|-----------------------------|
D|-----------------------------|
A|-----------------------------|
E|-0---------------------------|

Stockings, you're windy and wild, oh yeah
Well you're built like a car, you've got a hub cap diamond star 
Halo, you're dirty sweet and you're my girl

Get it on, bang a gong, get it on
Get it on, bang a gong, get it on

|E5  E6 E5  E6|E5  E6 E5  E6|2x

 |E5  E6  E5  E6  |E5  E6  E5  E6  |E5  E6 E5  E6|E5    E6   E5   E6|
                                                          Well you're
e|----------------|----------------|-------------|------------------|
B|----5----5------|----5----5------|----5----5---|--5--5--5---------|
G|----4----4------|----4----4------|----4----4---|--4--4--4---------|
D|----------------|----------------|-------------|------------------|
A|----------------|----------------|-------------|------------------|
E|----------------|----------------|-------------|------------2b3r2-|

 |E5                      |A7                         |
 Dirty and sweet, clad in black, don't look back and I
e|------------------------|------3-----------3--------|
B|------------------------|------2-----------2--------|
G|------------------------|---------------------------|
D|------------------------|---------------------------|
A|------------------------|---------------------------|
E|-0----------------------|---------------------------|

Love you, you're dirty and sweet, oh yeah
Well you dance when you walk, so let's dance, take a chance, under-
Stand me, you're dirty sweet and you're my girl

  Get it on, bang a gong, get it on
  Get it on, bang a gong, get it on                               Get it
e|                               |---------------------|----------------|
B|                               |---5----5----5---5---|----5----5------|
G|                               |---4----4----6-------|----4----4------|
D|                               |---------------------|----------------|
A|                               |---------------------|----------------|
E|                               |---------------------|----------------|

On, bang a gong, get it on

  |E5  E6 E5  E6|E5  E6 E5  E6|E5  E6 E5  E6|E5  E6 E5  E6|
e|                                          |-------------|
B|                                          |-----7\5-----|
G|                                          |-------------| 
D|                                          |-------------|
A|                                          |-------------|
E|                                          |-------------|

 |E5  E6  E5  E6  |E5  E6  E5  E6  |E5  E6 E5  E6|E5    E6   E5   E6|                             
                                                               Get it
e|----------------|----------------|-------------|------------------|
B|----5----5------|---5----5---5---|----5----5---|--5---5---5-------|
G|----4----4------|---4----4---4---|----4----4---|--4---4---4-------|
D|----------------|----------------|-------------|------------------|
A|----------------|----------------|-------------|------------------|
E|----------------|----------------|-------------|------------------|

  On, bang a gong, get it on                                       Get it
e|                               |----------------------|----------------|
B|                               |---5---5--5-----------|----5----5------|
G|                               |---4---4------6---4---|----4----4------|
D|                               |----------------------|----------------|
A|                               |----------------------|----------------|
E|                               |----------------------|----------------|

On, bang a gong, get it on
Get it on, bang a gong, get it on
Get it on, bang a gong, right on
Take me

 |G5                         |A5                       |E5                   |
e|---------------------------|-------------------------|---------------------|
B|--------8--10--10b12r10----|-8--10--10b12--10--8-----|---10b12--8----------|
G|--7--9---------------------|----------------------9--|-------------9-------|
D|---------------------------|-------------------------|---------------------|
A|---------------------------|-------------------------|---------------------|
E|---------------------------|-------------------------|---------------------|

 |E5  E6  E5  E6  |E5  E6  E5  E6  |E5  E6 E5  E6|E5    E6   E5   E6|                             
e|----------------|----------------|-------------|------------------|
B|----5----5------|---5----5---5---|----5----5---|--5---5---5-------|
G|----4----4------|---4----4---4---|----4----4---|--4---4---4-------|
D|----------------|----------------|-------------|------------------|
A|----------------|----------------|-------------|------------------|
E|----------------|----------------|-------------|------------------|
                                                  Repeat until fade

But meanwhile, I'm still thinking



************************************

| r  Release
| b  Bend
| \  Slide down   

************************************
Suggest correction
What's this?
You can suggest a correction to this tab. Community and Mods will review your correction and vote to approve or reject it.
comments
print report bad tab
1 comment total.
+1 reply
Benny Fury 265 wrote on March 12 2008, 09:32 pm

Sounds great to me man. Good job.

guest
You may want to rate the tab now too:
select rating
Please do not post tabs as comments. Select "correction" instead!