Oops, an error
Loading. Please wait.

Buick Mackane tab

by T. Rex
8,377 views 30 this week
1 commentread comment
1 2 3 4 5
x 4
add to favorites
×
Save as Personal and add changes to this tab that will be seen only by you. Learn more ›
×
You can save this tab as Personal to edit and correct it or add notes. All changes will be seen only by you. Learn more »
launch autoscroll
font size
0
reset
how to read this tab
guitar tuner
edit
Autoscroll
slow
fast
+/-
esc
set tempo
stop
Author
Difficulty
Tabbed by: Belavista Man
On: 27/08/07
E-mail: anthonybentley@hotmail.co.uk

Intro (played through the bulk of the song):
e|------------------------------------------------|
B|------------------------------------------------|
G|------------------------------------------------|
D|----------------------5-------------5-----------|
A|-5h-7--5h-7--5h-7-5-7---7--5h-7-5-7---7-5-------|
E|------------------------------------------7-5-5-|

Play that repeatedly (with little differences here and there - not too hard to spot) 
(roughly) the 2 minute mark. Then play:

e|-----------------------|
B|-----------------------|
G|-----------------------|
D|---5-----------5-------|
A|-7---7-5---7-7---7-5---|
E|---------7-----------7-|

Play THAT repeatedly.
At 2:38 play this solo:

e|----------------17-17-17br-17-15-----------------------------|
B|-17-17-17-15---------------------17-17-17-15-17-17-15-17-15~-|
G|-------------16----------------------------------------------|
D|-------------------------------------------------------------|
A|-------------------------------------------------------------|
E|-------------------------------------------------------------|

e|--------------------15-17-17br-15----------21b-21b-21b-21br-17-15-------|
B|-15-b17r-15~-15h-17---------------17-15-17------------------------17-15-|
G|------------------------------------------------------------------------|
D|------------------------------------------------------------------------|
A|------------------------------------------------------------------------|
E|------------------------------------------------------------------------|

The rest of the solo is best improvised because it's difficult to hear it on the 
If you can work it out then submit it to UG. I sure would like to have a look at it :)

            
            
Suggest correction
Creating personal tab
Creating personal tab
You can edit any tab online and save it as your Personal.

You can edit, replace or remove any tab part or add personal notes – all changes will be seen only by you.

Personal tabs can be accessed anytime from any device, even offline.
Learn more »
comments
print report bad tab
1 comment total.
0 reply
rockalittle 10 Apr 13, 2016 02:36 PM

easier to just do in my opinion sounds the same
e|----------------------------------------------------------------------
B|------------------------------------------------------------------------
G|-------------------------0------------0----------------------------------
D|---0h2 0h2 0h2 0--2--0-----0h2-2-0-2----2-0--------0h2--2----------------
A|--------------------------------------------2--0------------------------
E|----------------------------------------------------------------------

guest
You may want to rate the tab now too:
select rating
Wanna post a correction for this tab? Suggest correction