Oops, an error
Loading. Please wait.

Children Of The Revolution Bass Tab

version 1
version 1

Whole song

Interactive

7,447 views 6 this week
no commentswrite comment
1 2 3 4 5
x 4
add to favorites
launch autoscroll
font size
0
reset
guitar tuner
Autoscroll
slow
fast
+/-
esc
set tempo
stop
Help us to improve Ultimate-Guitar.com Take our survey!
×
Author
Difficulty
novice
T-Rex
Children of the revolution:


Main Riff:

G----------------------------------------------------|
D-------------------------------------------5--------|
A---7--7----5-7--5-7----5-7--5-7--5-7--5-7-----7-----|
E----------------------------------------------------|

Chorus Riff:

G----------------------------------------------------|
D-------------------------7--------------------------|
A---------3--3---------------------------------------|
E---3--3----------5----5-----7--5--------------------|

End on....

G--------------|
D--------------|
A---7~~~~~-----|
E--------------|

Listen to the song to know how many times each
riff should be played and when in the song.

DC
Suggest correction
comments
print report bad tab
guest
You may want to rate the tab now too:
select rating
Wanna post a correction for this tab? Suggest correction