Oops, an error
Loading. Please wait.

Children Of The Revolution tab

version 4
version 4

Whole song

Interactive

Video

by T. Rex
47,124 views 51 this week
8 commentsread comments
1 2 3 4 5
x 23
add to favorites
×
Save as Personal and add changes to this tab that will be seen only by you. Learn more ›
×
You can save this tab as Personal to edit and correct it or add notes. All changes will be seen only by you. Learn more »
launch autoscroll
font size
0
reset
how to read this tab
guitar tuner
backing track
0:00
0:00
edit
Autoscroll
slow
fast
+/-
esc
set tempo
stop
Author
Difficulty
Artist: T-Rex
Song: Children Of The revolution
Guitarist: Marc Bolan
Tabbed By: Dave Price

[Intro/Main Riff]
e|-----------------------------|------------------------------------------|
B|-----------------------------|------------------------------------------|
G|-1---1-----0--1----0--1------|--0--1----0--1----0--1----0--1------------|
D|-2---2-----0--2----0--2------|--0--2----0--2----0--2----0--2----5----2--|
A|-2---2-----0--2----0--2------|--0--2----0--2----0--2----0--2----5----2--|
E|-0---0-----------------------|------------------------------------------|
                       Play these first two bars twice!

[Verse/Chorus]
e|-----------------------------|------------------------------------------|
B|-----------------------------|------------------------------------------|
G|--1---1-----0--1-----0--1----|--0--1----0--1----0--1----0--1------------|
D|--2---2-----0--2-----0--2----|--0--2----0--2----0--2----0--2----5----2--|
A|--2---2-----0--2-----0--2----|--0--2----0--2----0--2----0--2----5----2--|
E|--0---0----------------------|------------------------------------------|

e|-----------------------------|-------------|
B|-----------------------------|-------------|
G|--1---1-----0--1-----0--1----|--1-----1----|
D|--2---2-----0--2-----0--2----|--2-----2----|
A|--2---2-----0--2-----0--2----|--2-----2----|
E|--0---0----------------------|--0-----0----|

e|--3-----3--------------------|-------------------|
B|--3-----3-----5-----5--------|-------------------|
G|--4-----4-----5-----5--------|-------------------|
D|--5-----5-----5-----5--------|-----7-------------|   
A|--5-----5-----3-----3--------|-------------------|
E|--3-----3----------------5---|--5------7-----5---|(x2)

[Main Riff/Outro]
e|--------------------------|------------------------------------------|
B|--------------------------|------------------------------------------|
G|--1---1----0--1----0--1---|--0--1----0--1----0--1----0--1------------|
D|--2---2----0--2----0--2---|--0--2----0--2----0--2----0--2----5----2--|
A|--2---2----0--2----0--2---|--0--2----0--2----0--2----0--2----5----2--|
E|--0---0-------------------|------------------------------------------|(x2)

e|-----|
B|--0--|
G|--1--|
D|--2--|
A|--2--|
E|--0--|

Listen to the track to get proper timing, and have fun playing!

            
            
Suggest correction
Creating personal tab
Creating personal tab
You can edit any tab online and save it as your Personal.

You can edit, replace or remove any tab part or add personal notes – all changes will be seen only by you.

Personal tabs can be accessed anytime from any device, even offline.
Learn more »
comments
print report bad tab
8 comments total. Showing first comments.
0 reply
Pricey550 101 Jan 18, 2006 04:31 AM

any comments

0 reply
GuitarBabydoll 10 Feb 16, 2006 11:03 AM

this is wicked man spot on

0 reply
Pricey550 101 Feb 19, 2006 04:14 AM

cheers
anyone else

guest
You may want to rate the tab now too:
select rating
Wanna post a correction for this tab? Suggest correction