Oops, an error
Loading. Please wait.

Funeral March Bass Tab

16 views 3 this week
no commentswrite comment
1 2 3 4 5
3 more votes to show rating
add to favorites
launch autoscroll
font size
0
reset
guitar tuner
Autoscroll
slow
fast
+/-
esc
set tempo
stop
Help us to improve Ultimate-Guitar.com Take our survey!
×
Author
Difficulty
[Intro]                            x4
G|-----------------------------------|
D|-----------------------------------|
A|-------0-0-0-0-0-0-0-0-0-0-0-0-0-0-|
E|-0--3------------------------------|

[Verse]                            x5
G|-----------------------------------|---------4---4---4---4---4---4---4-|
D|---------7---7---7---7---7---7---7-|-----------------------------------|
A|-------0---0---0---0---0---0---0---|-------2---2---2---2---2---2---2---|
E|-0--3------------------------------|-0--3------------------------------|

[Instrumental]                     x4
G|-----------------------------------|
D|-----------------------------------|
A|-------0-0-0-0-0-0-0-0-0-0-0-0-0-0-|
E|-0--3------------------------------|

[Verse]                            x5
G|-----------------------------------|---------4---4---4---4---4---4---4-|---------5---5---5---5---5---5---5-|
D|---------7---7---7---7---7---7---7-|-----------------------------------|-----------------------------------|
A|-------0---0---0---0---0---0---0---|-------2---2---2---2---2---2---2---|-------3---3---3---3---3---3---3---|
E|-0--3------------------------------|-0--3------------------------------|-0--3------------------------------|
                       
G|-----------------------------------|---------4---4---4---4---4---4---4-|---------5---5---5---5---5---5---5-|
D|---------7---7---7---7---7---7---7-|-----------------------------------|-----------------------------------|
A|-------0---0---0---0---0---0---0---|-------2---2---2---2---2---2---2---|-------3---3---3---3---3---3---3---|
E|-0--3------------------------------|-0--3------------------------------|-0--3------------------------------|

[Outro]
G|------------|
D|------------|
A|-------0----|
E|-0--3-------| 
Suggest correction
Give kudos to tab author, rate the tab!
1 2 3 4 5
comments
print report bad tab
guest
You may want to rate the tab now too:
select rating
Wanna post a correction for this tab? Suggest correction