Oops, an error
Loading. Please wait.

Weathered Statues tab

1,147 views 6 this week
2 commentsread comments
1 2 3 4 5
2 more votes to show rating
add to favorites
×
Save as Personal and add changes to this tab that will be seen only by you. Learn more ›
×
You can save this tab as Personal to edit and correct it or add notes. All changes will be seen only by you. Learn more »
launch autoscroll
font size
0
reset
how to read this tab
guitar tuner
edit
Autoscroll
slow
fast
+/-
esc
set tempo
stop
Author
Unregistered
Tuning: Standard

| b  - bend note
| () - natural harmonic
| /  - slide up
| \  - slide down
| X  - mute note


e|-------(5)-----------------------------------|
B|---------------------------------------------|
G|---(5)---------------------------------------|
D|---------------------------------------------|
A|---------------------------------------------|
E|---------------------------------------------|

e|---------------------------------------------------------------------------|
B|----0------1-------------------------0-----1-------------------------------|
G|------0------0-----3---1---0---1-------0-----0-----3---1---0---1-----------|
D|--2------2-----2-2---2---2---2---2-2-----2-----2-2---2---2---2---2---------|
A|---------------------------------------------------------------------------|
E|---------------------------------------------------------------------------|

e|---------------------------------------------------------------------------|
B|----0------1-------------------------0-----1-------------------------------|
G|------0------0-----3---1---0---1-------0-----0-----3---1---0---1-----------|
D|--2------2-----2-2---2---2---2---2-2-----2-----2-2---2---2---2---2---------|
A|---------------------------------------------------------------------------|
E|---------------------------------------------------------------------------|

    Weathered statues...           Tin soldiers that march in our parks

e|------------------3-----0--------------------------------------------------|
B|----0-----1---------1-----0---0-----0-----1--------------------------------|
G|---------------------------------------------------------------------------|
D|------2-----2---2-----2-----2---2-----2-----2---2-2-2-2-2-2-2-2-2----------|
A|--0-----0-----0-------------------0-----0-----0---0-0-0-0-0-0-0-0----------|
E|---------------------------------------------------------------------------|

                  Wrapped in yellow newsprint, on their benches in the dark

e|---------------------------------------------------------------------------|
B|----0------1-------------------------0-----1-------------------------------|
G|------0------0-----3---1---0---1-------0-----0-----3---1---0---1-----------|
D|--2------2-----2-2---2---2---2---2-2-----2-----2-2---2---2---2---2---------|
A|---------------------------------------------------------------------------|
E|---------------------------------------------------------------------------|

    Their faces filled with sadness, sorrow drawn from your nights

e|---------------------------------------------------------------------------|
B|----0------1-------------------------0-----1-------------------------------|
G|------0------0-----3---1---0---1-------0-----0-----3---1---0---1-----------|
D|--2------2-----2-2---2---2---2---2-2-----2-----2-2---2---2---2---2---------|
A|---------------------------------------------------------------------------|
E|---------------------------------------------------------------------------|

    Surviving on old glories but now the....    the glories have died

e|------------------3-----0--------------------------------------------------|
B|----0-----1---------1-----0---0-----0-----1--------------------------------|
G|---------------------------------------------------------------------------|
D|------2-----2---2-----2-----2---2-----2-----2---2-2-2-2-2-2-2-2-2----------|
A|--0-----0-----0-------------------0-----0-----0---0-0-0-0-0-0-0-0----------|
E|---------------------------------------------------------------------------|


          Let ring...
e|--2-2--------------------------------------------|
B|--3-3--------------------------------------------|
G|--2-2-0-3----------------------------------------|
D|--------X----------------------------------------|
A|--------1----------------------------------------|
E|-------------------------------------------------|

e|--------------------------(7)----------(7)--------------------|
B|------------------(5)---------(7)----------(7)----------------|
G|--------------(5)-----------------(7)----------(7)------------|
D|----------(5)-------------------------------------------------|
A|--(5)-(5)-----------------------------------------------------|
E|--------------------------------------------------------------|

e|--------------------------------------------|
B|-----------------------(5)------------------|
G|------------------(5)-----------------------|
D|----------(5)-(5)---------------------------|
A|--(5)-(5)-----------------------------------|
E|--------------------------------------------|

    Lonely men who are tortured...   once proud, but now forlorn

e|----------0---------------0----------------0---------------0----------------|
B|--------3---3-----------3---3------------2---2-----------2---2--------------|
G|------4-------4-------4-------4--------3-------3-------3-------3------------|
D|----5-----------5---5-----------5----4-----------4---4-----------4----------|
A|--5---------------5----------------4---------------4------------------------|
E|----------------------------------------------------------------------------|

    Gnarled hands hold canes where,  their guns once were before

e|----------0---------------0----------------0---------------0----------------|
B|--------3---3-----------3---3------------2---2-----------2---2--------------|
G|------4-------4-------4-------4--------3-------3-------3-------3------------|
D|----5-----------5---5-----------5----4-----------4---4-----------4----------|
A|--5---------------5----------------4---------------4------------------------|
E|----------------------------------------------------------------------------|

    Taunted by the children, who's parents lives he saved

e|----------0---------------0----------------0---------------0----------------|
B|--------3---3-----------3---3------------2---2-----------2---2--------------|
G|------4-------4-------4-------4--------3-------3-------3-------3------------|
D|----5-----------5---5-----------5----4-----------4---4-----------4----------|
A|--5---------------5----------------4---------------4------------------------|
E|----------------------------------------------------------------------------|

    Forgotten by a state, whose leg in war he gave

e|----------0---------------0----------------0---------------0----------------|
B|--------3---3-----------3---3------------2---2-----------2---2--------------|
G|------4-------4-------4-------4--------3-------3-------3-------3------------|
D|----5-----------5---5-----------5----4-----------4---4-----------4----------|
A|--5---------------5----------------4---------------4------------------------|
E|----------------------------------------------------------------------------|

    Silver gleams upon his chest, though sweat gleams on his brow

e|------0---2-------3-----2-----2--------0---2-------0-----2-----0-----------|
B|----3---3---3---3---3-----3-----3----2---2---2---2---2-----2-----2---------|
G|--2-----------2-------3-----3------1-----------1-------1-----1-------------|
D|---------------------------------------------------------------------------|
A|---------------------------------------------------------------------------|
E|---------------------------------------------------------------------------|

    Darker days and sable knights, who work upon his soul

e|------0---2-------3-----2-----2--------0---2-------0-----2-----0-----------|
B|----3---3---3---3---3-----3-----3----2---2---2---2---2-----2-----2---------|
G|--2-----------2-------3-----3------1-----------1-------1-----1-------------|
D|---------------------------------------------------------------------------|
A|---------------------------------------------------------------------------|
E|---------------------------------------------------------------------------|

    His honor flew away from him,  like pigeons on the wind

e|------0---2-------3-----2-----2--------0---2-------0-----2-----0-----------|
B|----3---3---3---3---3-----3-----3----2---2---2---2---2-----2-----2---------|
G|--2-----------2-------3-----3------1-----------1-------1-----1-------------|
D|---------------------------------------------------------------------------|
A|---------------------------------------------------------------------------|
E|---------------------------------------------------------------------------|

    Spending his last pennies,  on cheap wines and sin

e|------0---2-------3-----2-----2--------0---2-------0-----2-----0-----------|
B|----3---3---3---3---3-----3-----3----2---2---2---2---2-----2---------------|
G|--2-----------2-------3-----3------1-----------1-------1-----1-------------|
D|---------------------------------------------------------------------------|
A|---------------------------------------------------------------------------|
E|---------------------------------------------------------------------------|


e|--------------------------------------------------------------------------|
B|--------------------------------------------------------------------------|
G|--------------------------------------------------------------------------|
D|--------------------------------------------------------------------------|
A|--7/----------3-5-5b-3-----------2-4-4b2-4-5---------3-5-5b3--------------|
E|------3---3-5----------5-2---2-4--------------3---3-5----------5-2--------|

e|---------------------------------------------------------------------------------|
B|---------------------------------------------------------------------------------|
G|--------------------------5-7-7b5-----------4-6-6b4-6-7---------5-7-7b5----------|
D|--4-444--2-4-4--4/5---5-7----------7-4---4-6--------------5---5-7----------7-4---|
A|---------------------------------------------------------------------------------|
E|---------------------------------------------------------------------------------|

e|--------------------------------------------------------------------------|
B|--7-777-5/7-7--7/8---8-8-10--8--8-8\7--5--7--5--7/8--8-8-10--8--10-10/12--|
G|--------------------------------------------------------------------------|
D|--------------------------------------------------------------------------|
A|--------------------------------------------------------------------------|
E|--------------------------------------------------------------------------|

    But still they make the soldiers... and soldiers still grow old

   (Pick slide...)


    Pump their minds with dignity, then let the young men go

e|---------------------------------------------------------------------------|
B|----0------1-------------------------0-----1-------------------------------|
G|------0------0-----3---1---0---1-------0-----0-----3---1---0---1-----------|
D|--2------2-----2-2---2---2---2---2-2-----2-----2-2---2---2---2---2---------|
A|---------------------------------------------------------------------------|
E|---------------------------------------------------------------------------|

   Another day, another statue...   falls out in the dawn

e|---------------------------------------------------------------------------|
B|----0------1-------------------------0-----1-------------------------------|
G|------0------0-----3---1---0---1-------0-----0-----3---1---0---1-----------|
D|--2------2-----2-2---2---2---2---2-2-----2-----2-2---2---2---2---2---------|
A|---------------------------------------------------------------------------|
E|---------------------------------------------------------------------------|


    Weathered statues...              Still march on and on

e|------------------3-----0--------------------------------------------------|
B|----0-----1---------1-----0---0-----0-----1--------------------------------|
G|---------------------------------------------------------------------------|
D|------2-----2---2-----2-----2---2-----2-----2---2-2-2-2-2-2-2-2-2----------|
A|--0-----0-----0-------------------0-----0-----0---0-0-0-0-0-0-0-0----------|
E|---------------------------------------------------------------------------|


e|--2-2--------------------------------------------|
B|--3-3--------------------------------------------|
G|--2-2-0-3----------------------------------------|
D|--------X----------------------------------------|
A|--------1----------------------------------------|
E|-------------------------------------------------|
Suggest correction
Creating personal tab
Creating personal tab
You can edit any tab online and save it as your Personal.

You can edit, replace or remove any tab part or add personal notes – all changes will be seen only by you.

Personal tabs can be accessed anytime from any device, even offline.
Learn more »
Give kudos to tab author, rate the tab!
1 2 3 4 5
comments
print report bad tab
2 comments total.
0 reply
BMC93 72 May 16, 2010 04:43 PM

here is a much easyer way to play the intro and the next part i think you'll agree;

e------------------
B---0--1-----------
G----0--0--3-1-0-1-
D-2---2--2-2-2-2-2-
A------------------
E------------------

e-------------3----0----
B---0----1-----1----0---
G-----------------------
D----2----2------2----2-
A-0---0----0------------
E-----------------------

0 reply
glassinthegrass 30 Feb 01, 2011 01:26 PM

definitely played in the open position on the main riffs. also, the d arpeggio riff thing at "silver gleams" only uses d, dsus2 and dsus4. also, your bend notation is all screwed up. when you're bending a note you are going upward not down.

guest
Wanna post a correction for this tab? Suggest correction