Oops, an error
Loading. Please wait.

You Dont Have To Die bass

version 2
version 2

Whole song

159 views 1 this week
no commentswrite comment
1 2 3 4 5
1 last vote to show rating
add to favorites
×
Save as Personal and add changes to this tab that will be seen only by you. Learn more ›
×
You can save this tab as Personal to edit and correct it or add notes. All changes will be seen only by you. Learn more »
launch autoscroll
font size
0
reset
guitar tuner
edit
Autoscroll
slow
fast
+/-
esc
set tempo
stop
Author
Difficulty
Song:  You Dont have to Die
Band: TSOL
Tab By: Minason Van
Email: flipside217@yahoo.com

Intro and Verse

G: ---------------------------------------------------------------|
D: -----------2--2--------222-0--------2--2--------222-0----------|
A: ----2--22------3--333--------2--22------3--333-----------------|
E: ---------------------------------------------------------------|

repeat above as necessary

Intro to Chorus

G:----------------------------------------------------------------|
D: -----------2--2--------222-0-------5-5-----55------------------|
A: ----2--22------3--333---------5-55----5-55---5-----------------|
E:----------------------------------------------------------------|

Chorus

G: ---------------------------------------------------------------|
D: -------------------------777---777-----------------------------|
A: ----7-7-777-10-10-999--55----55--------------------------------|
E: ---------------------------------------------------------------|

G: ---------------------------------------------------------------|
D: ---------------------------------------------------------------|
A: ----7-7-777-10-10-999--55-555--55-555--------------------------|
E: ---------------------------------------------------------------|

repeat above as necessary

Back to Verse






Just listen to the song to get down the rhythm.
Hope you like this tab, its fun to play once you get it.

Enjoy!

            
            
Suggest correction
Creating personal tab
Creating personal tab
You can edit any tab online and save it as your Personal.

You can edit, replace or remove any tab part or add personal notes – all changes will be seen only by you.

Personal tabs can be accessed anytime from any device, even offline.
Learn more »
Give kudos to tab author, rate the tab!
1 2 3 4 5
comments
print report bad tab
guest
You may want to rate the tab now too:
select rating
Wanna post a correction for this tab? Suggest correction