Oops, an error
Loading. Please wait.

Shelter Me Tab

version 1
version 1

Whole song

Interactive

47,870 views 60 this week
3 commentsread comments
1 2 3 4 5
x 9
add to favorites
launch autoscroll
font size
0
reset
how to read this tab
guitar tuner
Autoscroll
slow
fast
+/-
esc
set tempo
stop
Help us to improve Ultimate-Guitar.com Take our survey!
×
Difficulty
intermediate
Artist: Tab Benoit 
Song: Shelter Me.
Tuning: Standard

E|---------------------------------------5---------------------------------------------------|
B|-------------------------------------------------------------------------------------------|
G|------------------------------------------7bp5---------------------------------------------|
D|----------------5--7--7-------------------------7------------------5--7--7-----------------|
A|------------/7-------------------------------------------------/7--------------------------|
E|--0--3--5--5---------------0--3--5--5----------------0--3--5--5-------------0--3--5--5-----|

E|--5--------------------------------------------------------------------------------------|
B|-----------------------------------------------------------------------------------------|
G|-----7bp5--------------------------------------------------------------------------------|
D|-----------7-------------5b7--7-------5b7--7-------5b7--7---------5b7--7---------5b7--7--|
A|----------------------7------------7------------7--------------7--------------7----------|
E|-----------------------------------------------------------------------------------------|
                The earth,,,      The Sky,,     The Mountains,,  Fall to,,     But I will,,

E|------------------------------------------------------------------------|
B|------------------------------------------------------------------------|
G|------------------------------------------------------------------------|
D|-----5b7--7v--------5h7--5--------------------5h7--5--------------------|
A|--7-------------------------7--5--3-------------------7--5--3-----------|
E|-------------------------------------5--3--5-------------------5--3--5--|
  None of these,,    Shelter me lord,,

(This next part has the chords you will need but you will need to watch the video at
http://www.youtube.com/watch?v=-Z_slWb-UNU  to follow. I did not repeat them over and
over,,just watch the video and play the chords. I also found from watching a couple 
different videos that he plays this part a couple different ways. This was easiest for me.)

E|----------------------------|
B|-------7---------9----7--5--|
G|--2----7----2----9----7--5--|
D|--3----7----3----9----7--5--|
A|--3----5----3----7----5--3--|
E|--1---------1---------------|
   Hide me...

(This is the basic song.  It repeats during the different parts so learn this and watch
the video.   I did not even try the solos in between so you are on your own with those.
This is my first attempting a tab so be kind if you think there is a mistake.
All my videos are under irotten on youtube.)

************************************

| /  Slide up
| b  Bend
| h  Hammer-on
| p  Pull off
| v  Vibrato

************************************
Suggest correction
comments
print report bad tab
3 comments total.
0 reply
horser4dish 40 Jul 16, 2011 03:46 PM

Just to add on to this... The chord part is pretty much tabbed right, but here's how the end lines up with the lyrics:


F
In your refuge, cover me

E D C
The world can shake, but Lord I'm making you my hiding place

And in the linked video, the tab up there is right, he just moves the high E down a string to play some variant of:
e 5

E x

0 reply
horser4dish 40 Jul 16, 2011 03:46 PM

Screwed up that E chord.

e 5

E x

0 reply
M.Paglia 10 Jan 25, 2012 08:48 PM

Great tab, would prefer that it had the solo but i can figure that out myself, it's not a partucularily fast solo

guest
You may want to rate the tab now too:
select rating
Wanna post a correction for this tab? Suggest correction