Oops, an error
Loading. Please wait.

Barbosa Tab

76 views 3 this week
no commentswrite comment
1 2 3 4 5
3 more votes to show rating
add to favorites
launch autoscroll
font size
0
reset
how to read this tab
guitar tuner
×
Best way to learn
"Barbosa"
Autoscroll
slow
fast
+/-
esc
set tempo
stop
Los acordes que hay en la otra tablatura que hay estan bien.
Esta version es mas exacta y tambien mas completa, con la
intro y el solo.
Espero comentarios al mail al final por si encuentran algo mal
porque algunos acordes no son tan sencillos.

Intro:
  G       B7      Em       E               Am
E-3-----3-2-----2-0----------------0--------------------
B-----3-------4-----0------0-----0----3-2-1-0--------1--
G---4-------2---------0--------1---------------1-2-4----
D-----------------------2----2--------------------------
A-------------------------------------------------------
E-------------------------------------------------------

Am              Em            B7           Em7
---------0----0-0-----------0-2----2-3-0---7-7-7-------
-------1-----1----0-------0----------------8-8-8-------
-2-1h2-----2--------0---0------2-----------7-7-7-------
----------------------2--------------------9-9-9-------
-------------------------------------------7-7-7-------
-------------------------------------------------------

En el SOLO hay un pequeño "punteito" antes del B7:
TAB 1:
D-0--0-
A--4---
E------

La cancion es con una batida como de Bossa Nova y con un ritmo
sambado y hace muchos juegos con los bajos (es comun para el samba creo).
Los acordes juegan con bajos mas graves los pongo aca con los bajos
ya en el acorde.

Hasta acá "escuche" yo. Cualquier cosa me consultan. Disculpen si
no esta tan prolijo.

ACORDES:
Em7:       x79787
B7:        797877
F°:        x8979x
Am7:       57555x
A°:        5x454x
B7/F#:     221202
Em:        022000
Em/C#:     x42030x (tengo algunas dudas con este)
E7/9:      x7677x o xx2132
C:         x32010
B7(2):     x21202
Em7(2):    022030
E7/B:      77675x
D/A:       55777x
G:         35543x


VERSO:
------
Em7      B7      Em7
La noche está de luto
  Em7     F°      Am7  A°
La fiesta terminó
 B7/F#        Em           Em/C#
El mundo no comprende qué pasó
    C  B7(2) Em   Em7(2)
con el cam - peón

  Em7    B7    Em7
La calle está desierta
  Em7   F°    Am7  A°
El sueño se perdió
   B7/F#        Em             Em/C#
El llanto de un borracho es un montón
   C   B7(2) Em7  E7/9 (deja sonar)
de mal -di - ción

ESTRIBILLO
----------
E7/B                Am7
Cuida los palos, Barbosa,
D/A             G   TAB1
del arco del Brasil
B7/F#      Em       Em/C#
La condena de Maracaná
  C       B7(2) Em  Em7(2)
se paga hasta morir

E7/B            Am7
Quema los palos, Barbosa,
D/A             G   TAB1
del arco del Brasil
B7/F#       Em       Em/C#
La condena de Maracaná
   C      B7    Em   E7/9 (dejar sonar)
se paga hasta morir


VERSOS: (IGUAL QUE ESTROFA 1 Y 2)
------
Un viejo vaga solo, La gente sin piedad
señala su fantasma sin edad, por la ciu-dad

Su sombra corta el pasto en el Maracaná
Repasa la jugada en soledad, mil ve-ces más

ESTRIBILLO (cavaquinho de fondo)
---------
Cuida los palos, Barbosa,
del arco del Brasil
La condena de Maracaná
se paga hasta morir
Quema los palos, Barbosa,
del arco del Brasil
La condena de Maracaná
se paga hasta morir

SOLO CON CAVAQUINHOS (1 TONO=12 TRASTES MAS ARRIBA para sonar igual!)
--------------------

E-3-3-3-3--2-2-2-2--0-0-0-0-0-----0-1--0--------------|7-5--5-3--3-2--7-5-4
B-3-3-3-3--4-4-4-4--0-0-0-0-0---3--------3-1--0-1-3-1-|--------------------
G-4-4-3-4--2-2-2-2--0-0-0-0-0-------------------------|--------------------
D-----------------------------------------------------|--------------------
A-----------------------------------------------------|--------------------
E-----------------------------------------------------|--------------------
                                                     (repite notas)
E-3-3-3-3--2-2-2-2--0-0-0-0-0-----0-1--0--------------|-7-5--5-3--3-2--0---
B-3-3-3-3--4-4-4-4--0-0-0-0-0---3--------3-1--0-1-3-1-|--------------------
G-4-4-3-4--2-2-2-2--0-0-0-0-0-------------------------|--------------------
D-----------------------------------------------------|--------------------
A-----------------------------------------------------|--------------------
E-----------------------------------------------------|--------------------


(REPITE ESTRIBILLO CON TODA LA BATUCADA ATRAS)


GRANDE URUGUAY! LA HAZAÑA MAS GRANDE DEL FUTBOL MUNDIAL!

Gracias por los comentarios
Caco (caconeta1234 EN h_o_t_m_a_i_l)
Suggest correction
Give kudos to tab author, rate the tab!
1 2 3 4 5
comments
print report bad tab
guest
You may want to rate the tab now too:
select rating
Wanna post a correction for this tab? Suggest correction