Oops, an error
Loading. Please wait.

Los Draculatekas Tab

version 2
version 2

Whole song

43 views 1 this week
no commentswrite comment
1 2 3 4 5
3 more votes to show rating
add to favorites
launch autoscroll
font size
0
reset
how to read this tab
guitar tuner
Autoscroll
slow
fast
+/-
esc
set tempo
stop
Help us to improve Ultimate-Guitar.com Take our survey!
×
Las versiones anteriores estan bien pero esta esta un poco mas clara
me parece y tiene algunas correcciones.


INTRO:
------
      Sabes a quien vi                   no me vas a creer
 Am      (m)       Dm            F   E         E7   Am
E-0-|--0--0--------|-------------1-|-0------------|--------------------|
B-1-|--1--1--------|--------5-6--1-|-0----------0-|--------------------|
G-2-|--2--2--------|------7------2-|-1----------1-|----2-4-5-4h5p4-----|
D-2-|--2--2--------|----7--------3-|-2----------2-|--2-------------5-4-|
A-0-|--0--0------4-|5------------3-|-2----------2-|--------------------|
E---|--------------|-------------1-|-0----0h2-4---|--------------------|

   Un domingo   me lo cruzo     con su melenita de galaaan        metiendo
  Dm/F        Am       (m..)         F        E7     Am    (m)
E-------0-1-|--5--------5-5---------|---------------|-5-----5---------|
B-----3-----|--5--------5-5---------|--5-6--------5-|-5-----5---------|
G---2-------|--5--------5-5---------|-----------7---|-5-----5---------|
D-3---------|--7--------7-7---------|---------------|-7-----7---------|
A-----------|--7--------7-7-------7-|8------8-7-----|-7---777----3--4-|
E-----------|--5--------5-5---------|---------------|-5---555---------|

 la pechera   hasta para   saludar El Pisano     Esta siempre igual
 Dm                 Am   E7   Am          F       E
|------------|------5----0----5--|---------------------------|
|------5-6---|------5----5----5--|------------1----0---------|
|----7-------|------5----7----5--|------------2----1---------|
|--7---------|------7----6----7--|----------3------2---------|
|5-----------|------7----7----7--|-----------------2---------|
|------------|------5----0----5--|--------1------0-0---------|

                    Flor de personaje Dice que anda bien     Me dejo...
 Am                    Dm               Am                    F  E7
---------------------|-----------5---------------------------|----------|
---------------------|---------5-6---------------------------|----------|
-------5--4h5p4------|-----7---------------------4-5---------|5------7--|
-----7----------7-6-7|---7---------------------7-------------|7------6--|
---7-----------------|-5---------------5---7---------------x-|8------7--|
-5-------------------|-------------------5-----------------x-|5------0--|

Fin intro : Am  -  Dm  Am  F  E7  (Acordes en el 5o y 6o traste)
            Am  -  Dm  Am  F  E7

"Puente": ("Lai, rai"): Am G - F E7
-------

Estribillo ("Somos los draculatecas"): Am - E - E7 - Am E7 Am
---------


Versos:
-------
        Dm -  Am  -  F -  E  (2x)
        Am  - E7  -  Am - E7 (1x)
        Am -  Dm  -  F -  E  (1x)


-------------------------------------------------------

INTRO:
------
Sabes, aquien vi?
No me vas a creer...
Un domingo, me lo cruzo
con su melenita de galán
metiendo la pechera, hasta para saludar
el pisano, está siempre igual.
Flor de personaje
dice que anda bien
me dejó un teléfono y se fue

FIN INTRO:
---------
Se perdió en la calle donde lo encontré
en la calle que lleva al ayer
Se perdió mi murga, dónde la deje?
los botijas me miran volver...

PUENTE:
--------
Lai, rai, rai, ra,
lailai, larai, rai, rai, ra

ESTRIBILLO:
----------
"Somos los Draculatekas
y una canción les vamos a cantar
con estos baldes torcidos
y latas pintadas de nuestra murga"

Fui por el Buceo para comprobar
que parado solo en el campito,
no se puede hacer girar pa' tras
la espada veloz del infinito.
Pero es relativa la velocidad,
cuando las pedradas del Julito
rompen las barreras de la realidad
y esos lentes te ven de verdad.

PUENTE

Cada tanto el Pepe me da un alegrón:
me llama o me lo encuentro en algún lado
y me dice que anda con la intención
de planificar aquel asado.
Pero por ahora nunca nos reunió
y eso que se viene organizando
desde que la murga se nos desarmó.
Debe ser que la carne subió.

PUENTE

Dicen que el Lechuga vive en Montreal;
otro, que lo vieron en el Prado,
que era coracero o pentecostal,
blanco, comunista o colorado.
Todo lo que digan puede ser verdad.
Puede ser mentira y no me importa.
Quiero verlo un d?a para conversar
y que nadie nos mande callar.

PUENTE

El Rulo gritando como un descosido,
parado en el "Layva" en puntas de pie.
El flete de Futten volviendo torcido.
El Aldo en el "Mega", carpeando el cuplé.
El flaco Carini, el Hicho y el Nino.
El vaso del Baby de "arriba Huracán".
La hermana del Cano, Miguel "Picofino",
y el Napo diciendo que vamo' a triunfar.

PUENTE

El Cuba surfista mirando el ensayo,
el Rengo y el Beto en la onda new wave
El Polo y el Chelo corriendo caballos.
Fumando callado pas? el viejo Rey.
- Subí Luis Antonio! - la Marta le grita.
Creció el Andresito: le dicen Andr?s.
Mañana el Hormiga se va a la visita;
Camilo y los Gretter ya junan cual es.

PUENTE

Hay baile en Anzani, corta (STOP) ron la calle,
se viste de momia mi tío Miguel.
El Toto y el Chicho en las grescas del "Valle",
el Willy con minas mas grandes que él.
Se escucha en el aire al Tambero chiflando,
el Rata que marca la l?nea de cal.
Sentado en el muro, el Nacho es el diablo.
El frasco de ara?as del Marcelo Paz.

PUENTE

Salió el negro Hugo, ya suenan los pinos;
Carlitos y el Chango aprenden kung fu.
La tercia más alta del mundo es Paulino,
el traje de Superman de Yamandú.
El Leo y el Mati en la panadería
llamando a Bigote, pateando el portón.
Pimienta en un barco que no volvería,
el Gabo baleado en la televisión.

PUENTE

*** ESTRIBILLO ***

Recitado: (CON ESTRIBILLO EN COROS)
---------
Se van los Draculatekas, la "Sonrisa del Buceo".
Una flor a la barriada y el adios de este murguero.
Desde el "Chorizo Sonriente" qué nombre pa´un parrillero!
Salen los Draculatekas, dos tablados por febrero.
Una murga con vedettes ¡dónde se ha visto, Dios mío!
Un beso para la Laurita, pa la Carla y pa  la Guido.
A "Forfai", la gorda Carmen, al Huguito el peluquero
y a la "Bestia del verano" que me quedo en el tintero
Pa Bruno, la negra Ana, Copita y el barrio entero,
Se van los Draculatekas, la "Sonrisa del Buceo".


Dedicado a mi amigo Martin "El Chori Sonriente" Gonzalez.
Comentarios a caconeta1234 de h_o_t_m_a_i_l
Suggest correction
Give kudos to tab author, rate the tab!
1 2 3 4 5
comments
print report bad tab
guest
You may want to rate the tab now too:
select rating
Wanna post a correction for this tab? Suggest correction