Oops, an error
Loading. Please wait.

Segundos Afuera Tab

19 views 1 this week
no commentswrite comment
1 2 3 4 5
3 more votes to show rating
add to favorites
×
Save as Personal and add changes to this tab that will be seen only by you. Learn more ›
×
You can save this tab as Personal to edit and correct it or add notes. All changes will be seen only by you. Learn more »
save as personal
new!
launch autoscroll
font size
0
reset
how to read this tab
guitar tuner
Autoscroll
slow
fast
+/-
esc
set tempo
stop
Intro primera parte:

e|------------------------------------------------------------
B|------------------------------------------------------------
G|-----------------7-5-------------------7-5------------------
D|-7-7-5-7-7-5-7-7-7-5-5-7-7-5-7-7-5-7-7-7-5-5-7-7-5-7-7-5-7-7
A|-7-7-5-7-7-5-7-7-5-3-5-7-7-5-7-7-5-7-7-5-3-5-7-7-5-7-7-5-7-7
E|-5-5-3-5-5-3-5-5-----3-5-5-3-5-5-3-5-5-----3-5-5-3-5-5-3-5-5

Intro segunda parte:

e|----------------------------------------------------
B|----------------------------------------------------
G|-7-5-4-5-5-4-5-5-4-5-5-7-5-7-9-9-7-9-9-7-9-9-7-5-4--  ahí engancha
D|-7-5-4-5-5-4-5-5-4-5-5-7-5-7-9-9-7-9-9-7-9-9-7-5-4--  con los versos
A|-5-3-2-3-3-2-3-3-2-3-3-5-3-5-7-7-5-7-7-5-7-7-5-3-2--
E|----------------------------------------------------

Verso: (con PM y en 5tas, es decir, tocar las 3 cuerdas
mas graves de cada acorde)

Am         C            F            E
Esa multitud esta esperandote al salir
Am              C           F         E
Ruge como un trueno que no para de rugir
Am            C            F             E
Rezan sus plegarias cada cual tiene su dios
Am          C         F            E
Uno contra uno cada uno en su rincon

Estribillo:

Am         G       F          E
Segundos afuera, abajo del ring
Am         G         F         E
El mundo lo espera, matar o morir

Intro:

Verso: (igual que el primer verso)

Estribillo:

Solo de guitarra: (misma base que la intro)

Estribillo:

Final:

e|------------------------------------------------
B|------------------------------------------------
G|-----------------7-5-------------------7-5------
D|-7-7-5-7-7-5-7-7-7-5-5-7-7-5-7-7-5-7-7-7-5-5-7--
A|-7-7-5-7-7-5-7-7-5-3-5-7-7-5-7-7-5-7-7-5-3-5-7--
E|-5-5-3-5-5-3-5-5-----3-5-5-3-5-5-3-5-5-----3-5--

PM=tapar las cuerdas con la mano que rasgueamos


Bueno, esta cancion no la conocia, pero el otro dia lo fui a ver cantar
a Tabare, y me quede anonadado del gran show que dio aca en BS AS.
Esta cancion me encanto cuando la escuche, asique me decidi a
sacarla.
yo creo que salvo el solo (que no lo saque) lo demas esta perfecto.
Cualquier cosa, a mi mail!

Nico..
Suggest correction
Give kudos to tab author, rate the tab!
1 2 3 4 5
comments
print report bad tab
guest
Wanna post a correction for this tab? Suggest correction