Oops, an error
Loading. Please wait.

Swing chords

41 views 1 this week
no commentswrite comment
1 2 3 4 5
3 more votes to show rating
add to favorites
×
Save as Personal and add changes to this tab that will be seen only by you. Learn more ›
×
You can save this tab as Personal to edit and correct it or add notes. All changes will be seen only by you. Learn more »
launch autoscroll
font size
0
reset
transpose
0
reset
simplify chords
display chords
guitar tuner
edit
Autoscroll
slow
fast
+/-
esc
set tempo
stop
Author
Strumming
There is no strumming pattern for this song yet. and get +5 IQ
Artist: Tabitha's Secret
Title: Swing
Album: Don't play with Matches
Transcribed by Ryan Short 
This song is a really fun song to play but the timing for 
the chords in the verses and choruses is kinda hard to get
if you don't know the song very well. So listen to the CD for
the timing between chords because I didn't even try to explain 
it, good luck.

[Intro]
F5 A#5 G G x2

[Verse]
F5                    G
    Still don't mean nothin'
F5                      G
    Was written on the concrete
F5                       G
    The words weren't on my tongue
         F           A#    G   
Cause we don't      talk about it
F5              G     F5           G    
    Day or no evenin', fashion or superman
F5                     G
   Just little warped people
F5         A#5         G
    With little black minds
Em
Well I wasn't sure just what to think
         A#
Say the lights went out
                    F5
Somebody, somebody swing

[Verse]
A#5  G                           F5           
       Don't wanna, don't wanna talk anymore
A#5   G              F5     A#5    G
           Somebody swing
             F5  A#5   G 
Don't wanna talk no... no

(Distorsion Guitar comes in here...)

F5                 G5
    What if we're tainted
F5              G5
    Who can we lie to
F5                 G5
    What if we're dying
              F5  A#5   G5
Would you just... walk around it
Em
Well I wasn't sure just what to think
         A#
Say the lights went out
                    F5
Somebody, somebody   swing

[Chorus]
A#5  G5                          F5
      (Don't wanna, don't wanna talk anymore)
 A#5        G5               F5
Bring boy, can you bring me down
 A#5     G5
Can you swing
                           F            A#5   G5
(Don't wanna), don't wanna talk anymore

[Bridge]
(guitar 2 on template, guitar 1 plays chords on top)
  Em Em      Em Em          C C     C C      D D       D D
e|----------------------|  |------------------------------------------|
B|------8--8-------8--8-|  |---8--8-----8--8-----10--10----12--10-----|
G|------9--9-------9--9-|  |---9--9-----9--9-----11--11----11--11-----|
D|------9--9-------9--9-|  |--10-10----10-10-----12--12----12--12-----|
A|----------------------|  |------------------------------------------|
E|----------------------|x2|------------------------------------------|
 {------------------------Two Times----------------------------------}
 Em
   Shut your violence, keep your head down,
                  C                      D 
Watch your anger boy, realize you could lose
Em
   This is violence, look for reason
                         C                   D 
This don't have to make sense to anybody at all
                           F5
Then everybody, won't you swing

[Solo]
(with heavy wha wha pedaling)
(F)  A#5             G5                     F5 
e|--------------------------------------------------|
B|--------------------------------------------------|
G|----5b---5b---5b---5b----5p3p0---3~~~~~-----------|
D|---------------------------------------5--3~~~~---|
A|--------------------------------------------------|
E|--------------------------------------------------|
    A#5                        G5                       F5       A#5
e|--------------------------------------------------------------------|
B|---------------------------------------------------6------6-------6-|
G|----------------------------------------3h5--5b-------5b-----5b-----|
D|---------------3-------------3----3--5------------------------------|
A|---3--3h5-3h5-----3h5--3h5------------------------------------------|
E|--------------------------------------------------------------------|
                      |---bend progressively higher, HEAVY WAH!---|
    G5              //F5         A#5      G5                    
e|--------------------------------------------------------------------|
B|-------6--8b----6--6--6--6--6b-6b-6b-6b-6b-6b-6b-6b-6b-8b-8b-8b-8b--|
G|--5b---------------7b-7b-7b-7b-7b-7b-7b-7b-7b-7b-7b-7b-7b-7b-7b-7b--|
D|--------------------------------------------------------------------|
A|--------------------------------------------------------------------|
E|--------------------------------------------------------------------|

[Verse]
No still don't mean nothin'
                            F5         G5
Words written all over the concrete
                       A#5   G5          
All over the concrete
Rage gets you out, so you swing

[Chorus]

A#5  G5                          F5
      (Don't wanna, don't wanna talk anymore)
 A#5        G5               F5
Bring boy, can you bring me down
 A#5     G5
Can you swing
                           F            A#5   G5
(Don't wanna), don't wanna talk anymore 

[Ending]
G


Chords
    G  G5  F5  A#5  A#  Em  C   D
e|------------------6---0----------|
B|------------------6---0---5---7--|
G|--------------3---7---0---5---7--|
D|--0---5---3---3---8---2---5---7--|
A|--2---5---3---1---8---2---3---5--|
E|--3---3---1-------6---0----------|

Email me with any suggestions, comments or corrections, 
Ryan Short
nouse4aname007@hotmail.com

 

************************************

| x  Dead note
| p  Pull-off
| b  Bend
| ~  Vibrato
| h  Hammer-on
 

************************************

            
            
Suggest correction
Creating personal tab
Creating personal tab
You can edit any tab online and save it as your Personal.

You can edit, replace or remove any tab part or add personal notes – all changes will be seen only by you.

Personal tabs can be accessed anytime from any device, even offline.
Learn more »
Give kudos to tab author, rate the tab!
1 2 3 4 5
comments
print report bad tab
guest
You may want to rate the tab now too:
select rating
Wanna post a correction for this tab? Suggest correction