Oops, an error
Loading. Please wait.

Pesek In Dotik Tab

by Tabu
2,824 views 3 this week
1 commentread comment
1 2 3 4 5
please rate
add to favorites
launch autoscroll
font size
0
reset
how to read this tab
guitar tuner
Autoscroll
slow
fast
+/-
esc
set tempo
stop
Help us to improve Ultimate-Guitar.com Take our survey!
×
Author
Difficulty
-------------------------------------------------------------------------------
                             Pesek in dotik - Tabu
                            http://www.t-a-b-u.com/
-------------------------------------------------------------------------------
Tabbed by: mitja.forte
E-mail: mitja.forte@gmail.com

Tuning: Standard



[Intro]

         A                  F#m               E               Asus4

Eb-----------0------|-----------0-----|-----2-----0-----|-----0h2---0-----| 
Bb-----0-------0----|-----0-------0---|-------0-----0---|-------------0---|  
Gb-------2-------2--|-------2-------2-|---2-----2-----2-|---2-----2-----2-| 
Db---2-----2--------|---2-----2-------|-2---------------|-0---------------| 
Ab-0----------------|-----------------|-----------------|-----------------| 
Eb------------------|-4---------------|-----------------|-----------------| 
repeat....


************************************
| h   hammer-on
************************************
 
Suggest correction
Give kudos to tab author, rate the tab!
1 2 3 4 5
comments
print report bad tab
1 comment total.
+1 reply
LiMuBai 10 wrote on July 23 2012, 05:24 am

GP datoteko pa lahko dolpotegnete tukaj:
http://www.trzalica.com/index.php/akordi/akordi-slovenskih-izvajalcev/slo-tuv/306-tabu/1881-pesek-in-dotik-guitarpro
Besedilo z akordi pa tule:
http://www.trzalica.com/index.php/akordi/akordi-slovenskih-izvajalcev/slo-tuv/306-tabu/1872-pesek-in-dotik

guest
You may want to rate the tab now too:
select rating
Please do not post tabs as comments. Select "correction" instead!