Oops, an error
Loading. Please wait.

Behemoth Tab

by Tad
1,415 views 1 this week
no commentswrite comment
1 2 3 4 5
3 more votes to show rating
add to favorites
launch autoscroll
font size
0
reset
how to read this tab
guitar tuner
Autoscroll
slow
fast
+/-
esc
set tempo
stop
Help us to improve Ultimate-Guitar.com Take our survey!
×
TAD
Song: Behemoth
Album: God’s Balls
Tabbed by Anthony DePiano on August 19, 2007

Tuning: Standard EADGBe

PM = Palm mute
() = just references what chord will be plucked
b = bend note
[] = natural harmonic – just hold finger on string without
     pushing on fret and play string


e----------------------------------------|
B----------------------------------------|
G----------------------------------------|  Play
D----------------------------------------|  4 times
A------------------5-------------------2-|
E-0-0-0--0-0-0-0-0----0-0-0--0-0-0-0-0---|
  PM..............    .....  ..... ...


    E
e----------------------------------------|
B--(5)----5-------5-------5--------5-----|
G--(4)------4-------4-------4--------4---|
D--(2)--2-------2-------2--------2-------|
A----------------------------------------|
E----------------------------------------|
Keep playing notes


VERSE:
Guitar I
e------------------------------------------|
B------------------------------------------|
G------------------------------------------|
D------2-------------------2---------------|
A------2-----------5-------2------------2--|
E--0-0---0-0-0-0-0-----0-0----0-0-0-0-0----|
|
Guitar II
e------------------------------------------|
B------------------------------------------|
G--4-4---4-4-4-4-4-----4-4----4-4-4-4-4----|
D--2-2---2-2-2-2-2-----2-2----2-2-2-2-2----|
A------------------------------------------|
E------------------------------------------|

Guitar I
e------------------------------------------|
B------------------------------------------|
G------------------------------------------|
D------2-------------------2---------------|
A------2-----------5-------2------------2--|
E--0-0---0-0-0-0-0-----0-0----0-0-0-0-0----|
|
Guitar II
e------------------------------------------|
B------------------------------------------|
G--4-4---4-4-4-4-4-----4-4--5-5-5--5-5/4---|
D--2-2---2-2-2-2-2-----2-2--3-3-3--3-3/2---|
A------------------------------------------|
E------------------------------------------|


CHORUS: One Guitarist
e------------------------------------------------------|
B--5---5-----5-------5------5--------5-----------5-----|
G--------4------4------4------4--------4-----------4---|
D----------------------------------------2-----------2-|
A------------------------------------------------------|
E----3------2------3------2------0-----------2-0-------|

If you have two guitarists you can do this
CHORUS: 2 Guitarists
Guitar I
e------------------------------------------------------|
B--5-----5------5-------5------5--------5-------5------|
G----4-----4------4-------4------4--------4-------4----|
D------2-----2------2-------2-------2--------2-------2-|
A------------------------------------------------------|
E------------------------------------------------------|
|
Guitar II
e------------------------------------------------------|
B------------------------------------------------------|
G------------------------------------------------------|
D------------------------------------------------------|
A----5------4------5------4------2-----------4-2-------|
E----3------2------3------2------0-----------2-0-------|
  Repeat chorus

SOLO: Not too sure.  It’s hard to hear and uses a lot of
      feedback.  It starts off like this.
e------------------------------------------------------|
B------------------------------------------------------|
G----------9b------------------------------------------|
D-----9b-----------------------------------------------|
A------------------------------------------------------|
E------------------------------------------------------|

e-----------------------------------------------------|
B-(5-5)-<--optional------->-(5-5)---------------------|
G--4-4-----------------------4-4----------------------|
D--2-2-----------------------2-2----------------------|
A--2-2-----------------------2-2----------------------|
E-------[2]-[2]-[2]-[2]-[2]-------[2]-[2]-[2]-[2]-[2]-|
  Play a few times

Repeat parts to finish the song
Suggest correction
Give kudos to tab author, rate the tab!
1 2 3 4 5
comments
print report bad tab
guest
You may want to rate the tab now too:
select rating
Wanna post a correction for this tab? Suggest correction