Oops, an error
Loading. Please wait.

Wedding Dress Tab

version 1
version 1

Whole song

Interactive

69,307 views 33 this week
1 commentread comment
1 2 3 4 5
worth learning
x 6
add to favorites
launch autoscroll
font size
0
reset
how to read this tab
guitar tuner
Autoscroll
slow
fast
+/-
esc
set tempo
stop
Help us to improve Ultimate-Guitar.com Take our survey!
×
Author
Taeyang - Wedding Dress
Standard Tuning.
Chords: Am, F, C, G (Play tabs and chords together for best results!)
Tabs played throughout whole song. Chords come in after tabs are played once.
This was tabbed by ear so don't be too harsh =)
By: Kelvin Lieu 
Add me: da_unknown_azn@hotmail.com
thanks. 
E|---3--------------0--0------------------------0--------0--1--0--0-------|
b|-------------1----------------1------0--1--3--------3-------------------|
g|----------0----------------2-----0---------------0----------------------|
d|-------2----------------3-----------------------------------------------|
a|---0------------------------------------------3-------------------------|
e|------------------------------------------------------------------------|

E|------------------------------------------------------------------------|
b|------------3---1--3----------------------------------------------------|
g|---------0--------------------------------------------------------------|
d|------0-----------------------------------------------------------------|
a|------------------------------------------------------------------------|
e|---3--------------------------------------------------------------------|


E|---3---------------0--0-------------------------0--------2/3------------|
b|-------------1-----------------1------0--1--3-----------------1--3------|
g|----------0-----------------2-----0-------------------0-----------------|
d|-------2-----------------3-------------------------0--------------------|
a|---0--------------------------------------------3-----------------------|
e|------------------------------------------------------------------------|

E|------------------------------------------------------------------------|
b|------------3---1--3----------------------------------------------------|
g|---------0--------------------------------------------------------------|
d|------0-----------------------------------------------------------------|
a|------------------------------------------------------------------------|
e|---3--------------------------------------------------------------------|
Suggest correction
comments
print report bad tab
1 comment total.
-1 reply
Andrewwww 10 wrote on July 22 2010, 05:40 am

This is the best tab I've ever read, amazing.

guest
You may want to rate the tab now too:
select rating
Please do not post tabs as comments. Select "correction" instead!