Oops, an error
Loading. Please wait.

Eyes Nose Lips tab

version 1
version 1

Whole song

by Taeyang
5,970 views 105 this week
1 commentread comment
1 2 3 4 5
3 more votes to show rating
add to favorites
×
Save as Personal and add changes to this tab that will be seen only by you. Learn more ›
×
You can save this tab as Personal to edit and correct it or add notes. All changes will be seen only by you. Learn more »
launch autoscroll
font size
0
reset
how to read this tab
guitar tuner
edit
Autoscroll
slow
fast
+/-
esc
set tempo
stop
Author
Difficulty
 I was bored one day and played this while listening to the song. They're simple chords.
 Please give credit.

Intro:
 -------                                                    -----8-|
 -5---6-                                                    ---6---|
 -5---5- [x2] (pluck chords while picking the low string)   -5-----| (end intro with this)
 -5---3-                                                    -------|
 -3---3-                                                    -------|
 -------                                                    -------|

 0--- ------- ------ ------ ------ -0---- ------ ------ ------
 --1-- -0---- -1---- -0---- -1---- ---1-- -0---- -1---- -1----
 ----0 ---0-- ---0-- ---1-- ---2-- -----0 ---0-- ---2-- ---1-- (Verse, finger pick each section 5 times)
 ----- -----2 -----2 -----2 -----3 ------ -----2 -----3 -----3
 ----- ------ ------ ------ ------ ------ ------ ------ ------
 ----- ------ ------ ------ ------ ------ ------ ------ ------

 0--------------------------|
 1---0-----1-----1-----1----|
 0---0-----0-----2-----1----| (Chorus, strum or finger pick)
 2---2-----2-----3-----3----|
 3---0-----0-----3-----3----|
 ---------------------------|

 ------------------------|
 5-----5-----1-----1-----|
 --5-----3-----2-----1---| (Bridge, finger pick each section 5 times)
 ----5-----5-----3-----3-|
 ------------------------|
 ------------------------|

 1-----------------------|
 2---1-----2-----2-----2-|
 1---1-----1-----3-----2-| (Chorus 2, aka. key change)
 3---3-----3-----4-----4-|
 ----------------4-----4-|
 ------------------------|

            
            
Suggest correction
Creating personal tab
Creating personal tab
You can edit any tab online and save it as your Personal.

You can edit, replace or remove any tab part or add personal notes – all changes will be seen only by you.

Personal tabs can be accessed anytime from any device, even offline.
Learn more »
Give kudos to tab author, rate the tab!
1 2 3 4 5
comments
print report bad tab
1 comment total.
0 reply
lalalaxxx2344 10 May 21, 2017 03:23 AM

didn't like this contribution

guest
You may want to rate the tab now too:
select rating
Wanna post a correction for this tab? Suggest correction