Oops, an error
Loading. Please wait.

11 11 Tab

2,242 views 474 this week
no commentswrite comment
1 2 3 4 5
2 more votes to show rating
add to favorites
launch autoscroll
font size
0
reset
how to read this tab
guitar tuner
Autoscroll
slow
fast
+/-
esc
set tempo
stop
Help us to improve Ultimate-Guitar.com Take our survey!
×
Author
Difficulty
Capo
novice
3rd fret
[Intro/Verse/Chorus]
        Em7     D      Cadd9  G/B    Em7 D   Cadd9  G/B    D/F#    Bm7
e|--------3-----2--------0------------3--2-----0----------------------------|
B|--------3-----3--------3-----3------3--3-----3-----3-----3--------3-------|   x5
G|--------0-----2--------0-----0------0--2-----0-----0-----2--2-----2-------| 
D|---0h2--------0--------------0------2--0-----------0-----0--------0-------|
A|-----------x-----x---3----x--2--x---------x--3--x--2--x--------x--2-------|
E|-----------x-----x--------x-----x---------x-----x-----x--2-----x----------|

[Pre-chorus]
   Cadd9                D/F#       G/B
e|--------------------------------------------------------------------------|
B|---3-----------3-------3--3------3--3-------------------------------------|   x3
G|---0-----------0-------2--2------0--0-------------------------------------|
D|---2-------0h2---------0--0------0--0-------------------------------------|
A|-3----x--3--------x----------x---------x----------------------------------|
E|------x-----------x----2-----x---3-----x----------------------------------|

   Am7        G/B  Cadd9   D
e|-------------------0-----2------------------------------------------------|
B|--1----------3-----3-----3------------------------------------------------|
G|--0----------0-----0-----2------------------------------------------------|
D|--2----------0-----------0------------------------------------------------|
A|--0------x---2--x--3--x---------------------------------------------------|
E|---------x------x-----x---------------------------------------------------|

[Intro/Verse/Chorus]
        Em7     D      Cadd9  G/B    Em7 D   Cadd9  G/B    D/F#    Bm7
e|--------3-----2--------0------------3--2-----0----------------------------|
B|--------3-----3--------3-----3------3--3-----3-----3-----3--------3-------|   x4
G|--------0-----2--------0-----0------0--2-----0-----0-----2--2-----2-------| 
D|---0h2--------0--------------0------2--0-----------0-----0--------0-------|
A|-----------x-----x---3----x--2--x---------x--3--x--2--x--------x--2-------|
E|-----------x-----x--------x-----x---------x-----x-----x--2-----x----------|

[Pre-chorus]
   Cadd9                D/F#       G/B
e|--------------------------------------------------------------------------|
B|---3-----------3-------3--3------3--3-------------------------------------|   x3
G|---0-----------0-------2--2------0--0-------------------------------------|
D|---2-------0h2---------0--0------0--0-------------------------------------|
A|-3----x--3--------x----------x---------x----------------------------------|
E|------x-----------x----2-----x---3-----x----------------------------------|

   Am7        G/B  Cadd9   D
e|-------------------0-----2------------------------------------------------|
B|--1----------3-----3-----3------------------------------------------------|
G|--0----------0-----0-----2------------------------------------------------|
D|--2----------0-----------0------------------------------------------------|
A|--0------x---2--x--3--x---------------------------------------------------|
E|---------x------x-----x---------------------------------------------------|

[Bridge]
    Cadd9  G/B      Em7    D
e|----0---------------3----2------------------------------------------------|    
B|----3-----3---------3----3------------------------------------------------|   x3
G|----0-----0---------0----2------------------------------------------------|
D|----------0-----0h2------0------------------------------------------------|
A|--3----x--2--x--------x-----x---------------------------------------------|
E|-------x-----x--------x-----x---------------------------------------------|

    Am7      G/B  Cadd9   D
e|------------------0-----2-------------------------------------------------|
B|--1~--------3-----3-----3-------------------------------------------------|
G|--0~--------0-----0-----2-------------------------------------------------|
D|--2~--------0-----------0-------------------------------------------------|
A|--0~-----x--2--x--3--x----------------------------------------------------|
E|---------x-----x-----x--------x---x---x---x-------------------------------|

[Pre-chorus]
   Cadd9                D/F#       G/B
e|--------------------------------------------------------------------------|
B|---3-----------3-------3--3------3--3-------------------------------------|   x3 
G|---0-----------0-------2--2------0--0-------------------------------------|
D|---2-------0h2---------0--0------0--0-------------------------------------|
A|-3----x--3--------x----------x---------x----------------------------------|
E|------x-----------x----2-----x---3-----x----------------------------------|

   Am7        G/B  Cadd9   D
e|-------------------0-----2------------------------------------------------|
B|--1----------3-----3-----3------------------------------------------------|
G|--0----------0-----0-----2------------------------------------------------|
D|--2----------0-----------0------------------------------------------------|
A|--0------x---2--x--3--x---------------------------------------------------|
E|---------x------x-----x---------------------------------------------------|

[Intro/Verse/Chorus]
        Em7     D      Cadd9  G/B    Em7 D   Cadd9  G/B    D/F#    Bm7
e|--------3-----2--------0------------3--2-----0----------------------------|
B|--------3-----3--------3-----3------3--3-----3-----3-----3--------3-------|   x4
G|--------0-----2--------0-----0------0--2-----0-----0-----2--2-----2-------| 
D|---0h2--------0--------------0------2--0-----------0-----0--------0-------|
A|-----------x-----x---3----x--2--x---------x--3--x--2--x--------x--2-------|
E|-----------x-----x--------x-----x---------x-----x-----x--2-----x----------|


************************************

| h  Hammer-on
| x  Dead note
| ~  Vibrato

************************************
Suggest correction
Give kudos to tab author, rate the tab!
1 2 3 4 5
comments
print report bad tab
guest
You may want to rate the tab now too:
select rating
Wanna post a correction for this tab? Suggest correction