Oops, an error
Loading. Please wait.

Krittodasher Nirban Tab

907 views 1 this week
no commentswrite comment
1 2 3 4 5
please rate
add to favorites
launch autoscroll
font size
0
reset
how to read this tab
guitar tuner
Tab Pro tools
  • play this tab
  • loop segment
  • change instrument
  • show fretboard
  • metronome
×
Best way to learn
"Krittodasher Nirban"
Autoscroll
slow
fast
+/-
esc
set tempo
stop
Contributor
Difficulty
advanced
Song: kada
Artist:Tahsan
Album: Krittodasher nirban


This song really sounds rocking with its magical verses,so this tab is for those who 
tahsan as a singer
And who's gonna love me for this tab!?!?
I think It would be too much big for this website,
i would request u guys to take this tab on note pad an through width

This is my third tab & I think ,the most accurate one!

Play on standard tuning


Beginning(only chords)
|------A#m--------||------F#---------||------D#m--------||------Fm---------||------G#---------||------A#m--------|

(if you Can't find out the exact strumming pattern ,then I would recommend you to give 
playing guitar)

Then the same pattern is played by adding a riff:

|------A#m--------||------F#---------||------D#m--------||------Fm---------||------G#---------||------A#m--------|
riff played along with the chords:
|---------6-------||---------6-------||---------6-------||---------6-------||---------6-------||---------6-------|
|-----6-------6---||-----6-------6---||-----6-------6---||-----6-------6---||-----6-------6---||-----6-------6---|
|---6---6---6---6-||---6---6---6---6-||---6---6---6---6-||---6---6---6---6-||---6---6---6---6-||---6---6---6---6-|
|-8---------------||-8---------------||-8---------------||-8---------------||-8---------------||-8---------------|
|-----------------||-----------------||-----------------||-----------------||-----------------||-----------------|
|-----------------||-----------------||-----------------||-----------------||-----------------||-----------------|
Then only the riff is played once:

|---------6-------|
|-----6-------6---|
|---6---6---6---6-|
|-8---------------|
|-----------------|
|-----------------|

Now!...comes the magical verses.....


Verse 1
bishash jokhon bondhur aral
shartho tokhon mukkha matal
oshomapto kobita
vabna jokhon ondhokare
alor dake vasha khoje...
chena tokhon ochena
verse 2
amontron prothom tomar
utthan hoito amar
bishorjon ditio amar
bicche tomar amar

Pre chorus:
kalo shutai jora hoye
ovinoyer mome puri
ovin groher utshab shikhe
apon groho vule gechi
Chorus:
kothai tumi kothai ami
kothai tumi kathai a.m...i
kothai tumi kothai ami
kothai tumi kathai a.m...i


Verse 3:
bishash jokhon torko chobi
bashona bimurto hobi ,ohomi
orthovore bartho hobi
nijeke tui ar koto kadabi
bishash keno harabi
tor ovinoyer jiboooon.......

Verse  1::
|--bishash jokhon-||---bondhur aral--||-shartho tokhon--||--mukkha matal---||---oshomapto-----||------kobita-----|
|------A#m--------||------F#---------||------D#m--------||------Fm---------||------G#---------||------A#m--------|
riff played along with the chords:
|---------6-------||---------6-------||---------6-------||---------6-------||---------6-------||---------6-------|
|-----6-------6---||-----6-------6---||-----6-------6---||-----6-------6---||-----6-------6---||-----6-------6---|
|---6---6---6---6-||---6---6---6---6-||---6---6---6---6-||---6---6---6---6-||---6---6---6---6-||---6---6---6---6-|
|-8---------------||-8---------------||-8---------------||-8---------------||-8---------------||-8---------------|
|-----------------||-----------------||-----------------||-----------------||-----------------||-----------------|
|-----------------||-----------------||-----------------||-----------------||-----------------||-----------------|

|---vabna jokhon--||----ondhokare----||----alor dake----||--vasha khoje..--||--chena tokhon---||-----ochena------|
|------A#m--------||------F#---------||------D#m--------||------Fm---------||------G#---------||------A#m--------|
riff played along with the chords:
|---------6-------||---------6-------||---------6-------||---------6-------||---------6-------||---------6-------|
|-----6-------6---||-----6-------6---||-----6-------6---||-----6-------6---||-----6-------6---||-----6-------6---|
|---6---6---6---6-||---6---6---6---6-||---6---6---6---6-||---6---6---6---6-||---6---6---6---6-||---6---6---6---6-|
|-8---------------||-8---------------||-8---------------||-8---------------||-8---------------||-8---------------|
|-----------------||-----------------||-----------------||-----------------||-----------------||-----------------|
|-----------------||-----------------||-----------------||-----------------||-----------------||-----------------|


Then only the riff is played once:

|---------6-------|
|-----6-------6---|
|---6---6---6---6-|
|-8---------------|
|-----------------|
|-----------------|

Verse2:

A#m------F#m-----
amontron prothom tomar
A#m----G#-------
utthan hoito amar
A#m-------F#m-----
bishorjon ditio amar
A#m---G#------
icche tomar amar


Pre-chorus:

A#m--F#-----G#
kalo shutai jora hoye
A#m-F#---G#-----
ovinoyer mome puri
A#m--F#-----G#-----
ovin groher utshab shikhe
A#m--F#----G#-------
apon groho vule gechi

Chorus:

A#m----F#---G#-------
kothai tumi kothai ami
A#mF#G#
A#m----F#---G#-------
kothai tumi kothai a.m...i
A#m----F#---G#-------
kothai tumi kothai ami
A#m----F#---G#-------A#m---
kothai tumi kathai a.m...i


The part of piano which comes right after the chorus:
|----------------------------------------------------------------------------------------6-|
|---------6-----6----------6-----6-----------6------6---------------------------------9----|
|-------6-----8----------6-----8-----------6-----8----6--5--6------------5--6-5------------|
|-----8----------------8-------------8---8---------------------6--8-8-8----------8---------|
|----------------------9-----------------6---------------8------------11-------------------|
|-----6------------------------------------------------------------------------------------|

The bass part (Notes played on the 5th & 6th string ) becomes hard to play together, so 
would advise to play the bass part on 2nd guitar.

Then play verse 3 with the same pattern of verse 1.
Then
Verse2:
then the
	Pre-chorus:
then
	Chorus:
and again
	chorus:

End!!!!!


My other tabs:
1. amar pothe chola- artcell (hosted on Ultimate-guitar.com)
2. lobher agun- Cryptic Fate (hosted on Ultimate-guitar.com)
I think doesn't need to be commented.(for it's accuracy,i Think!)
but still if someone, specially cuties have got something to say ,Mail or sms me on this address:


* This is the author's own work and intended for study purpose only.
* The creator and owner of the song has NOT been contacted and taken permission of.

Irshaad_ifti@yahoo.com
Mob:0188487932
comments
We did not receive enough feedback on this tab! Please rate:
print report bad tab
1 2 3 4 5
I want to post or [tab]
guest
You may want to rate the tab now too:
select rating
Please do not post tabs as comments. Select "correction" instead!