Oops, an error
Loading. Please wait.

Dont Leave Me Alone Bass Tab

97 views 1 this week
no commentswrite comment
1 2 3 4 5
3 more votes to show rating
add to favorites
launch autoscroll
font size
0
reset
guitar tuner
Autoscroll
slow
fast
+/-
esc
set tempo
stop
Help us to improve Ultimate-Guitar.com Take our survey!
×
Difficulty
Tuning
intermediate
B E A D F# B
Band: Tailout Cycle
Song: Don't Leave Me Alone
Album: Streets EP 2010

Bass tuning: B D A D G

[Intro:]

|----------|
|----------|
|----------| x 6
|----------|
|-0-0------|

[Main Riff:]

|-----------------------------------------------------------------|
|-----------------------------------------------------------------|
|----------------------------0-0-------------------------0-0-0-0--| x 2
|-------------5--2-2-2-2-----------------------5-0-0-0-0----------|
|-0-0--0-0--0------------3-3-------0-0--0-0--0--------------------|

[Verse:]

|---------------------------------------------|
|---------------------------------------------|
|---------------------------------------------| x 2
|------------5--5-5--5------------------------|
|-0--0-0--0-------------3--3-3--3--1--1-1--1--|

[Pre-Chorus:]

|-----------------|
|-----------------|
|-----------------|
|-5-------7-------|
|-----------------|

[Chorus:]

|------------------------------------------------------------|
|------------------------------------------------------------|
|------------------------------------------------------------|
|-5-5---7-7---------------------5-5---7-7--------------------|
|-------------0-0-0-0-0-0-0-0---------------5-5-5-5-5-5-5-5--|

|--------------------------------------------------------------|
|--------------------------------------------------------------|
|--------------------------------------------------------------|
|-5-5---7-7---------------------5-5-5-5-5-5-5-5-7-7-7-7-7-7----|
|-------------0-0-0-0-0-0-0-0-------------------------------5--|

[Main Riff:]

|-----------------------------------------------------------------|
|-----------------------------------------------------------------|
|----------------------------0-0-------------------------0-0-0-0--| x 2
|-------------5--2-2-2-2-----------------------5-0-0-0-0----------|
|-0-0--0-0--0------------3-3-------0-0--0-0--0--------------------|

[Verse:]

|---------------------------------------------|
|---------------------------------------------|
|---------------------------------------------| x 3
|------------5--5-5--5------------------------|
|-0--0-0--0-------------3--3-3--3--1--1-1--1--|

[Pre-Chorus:]

|-----------------|
|-----------------|
|-----------------|
|-5-------7-------|
|-----------------|

[Chorus:]

|------------------------------------------------------------|
|------------------------------------------------------------|
|------------------------------------------------------------|
|-5-5---7-7---------------------5-5---7-7--------------------|
|-------------0-0-0-0-0-0-0-0---------------5-5-5-5-5-5-5-5--|

|--------------------------------------------------------------|
|--------------------------------------------------------------|
|--------------------------------------------------------------|
|-5-5---7-7---------------------5-5-5-5-5-5-5-5-7-7-7-7-7-7----|
|-------------0-0-0-0-0-0-0-0-------------------------------5--|

[Main Riff:]

|-----------------------------------------------------------------|
|-----------------------------------------------------------------|
|----------------------------0-0-------------------------0-0-0-0--| x 2
|-------------5--2-2-2-2-----------------------5-0-0-0-0----------|
|-0-0--0-0--0------------3-3-------0-0--0-0--0--------------------|

[Bridge:] - comes without a bass, only after guitar solo comes the same melody as 
in the beggining.

|----------|
|----------|
|----------| x 2
|----------|
|-0-0------|

[Chorus:] play it 2 times

|------------------------------------------------------------|
|------------------------------------------------------------|
|------------------------------------------------------------|
|-5-5---7-7---------------------5-5---7-7--------------------|
|-------------0-0-0-0-0-0-0-0---------------5-5-5-5-5-5-5-5--|

|--------------------------------------------------------------|
|--------------------------------------------------------------|
|--------------------------------------------------------------|
|-5-5---7-7---------------------5-5-5-5-5-5-5-5-7-7-7-7-7-7----|
|-------------0-0-0-0-0-0-0-0-------------------------------5--|

[Main Riff:] - ENDING

|-----------------------------------------------------------------|
|-----------------------------------------------------------------|
|----------------------------0-0-------------------------0-0-0-0--| x 2
|-------------5--2-2-2-2-----------------------5-0-0-0-0----------|
|-0-0--0-0--0------------3-3-------0-0--0-0--0--------------------|
Suggest correction
Give kudos to tab author, rate the tab!
1 2 3 4 5
comments
print report bad tab
guest
You may want to rate the tab now too:
select rating
Wanna post a correction for this tab? Suggest correction