Oops, an error
Loading. Please wait.

Red Button Bass Tab

108 views 1 this week
no commentswrite comment
1 2 3 4 5
please rate
add to favorites
launch autoscroll
font size
0
reset
guitar tuner
Autoscroll
slow
fast
+/-
esc
set tempo
stop
Help us to improve Ultimate-Guitar.com Take our survey!
×
Difficulty
Tuning
intermediate
B E A D F# B
Band: Tailout Cycle
Song: Red Button
Album: Streets EP 2010
Year: 2010

---

Bass Tunning : B D A D G

[Intro:]

|---------------------------------|
|---------------------------------|
|---------------------------------|
|-0-------1-------0-------1-------|
|---------------------------------|

[Chorus:]

|---------------------------------|
|---------------------------------|
|---------------------------------| x2
|-0-0----0-0----1-1----3333-1-0---|
|---------------------------------|

[Interlude:]

|---------------------------------------------------|
|---------------------------------------------------|
|---------------------------------------------------| x2
|-----6---3---1--1-0-1-1-------6---1-0-1-2-1-2-1-2--|
|-3-3---3---3--------------3-3---3------------------|

[Verse:]

|--------------------|
|--------------------|
|--------------------| x4
|-----------5---3----|
|-3-----3-1----------|

[Pre Chorus:]

|--------------------|
|--------------------|
|--------------------|
|-0------------------|
|--------------------|
[Chorus:]

|---------------------------------|
|---------------------------------|
|---------------------------------| x4
|-0-0----0-0----1-1----3333-1-0---|
|---------------------------------|

[Pre Verse:]

|-------------------------------------------------------------|
|-------------------------------------------------------------|
|-------------------------------------------------------------|
|-------------------------------------------------------------|
|-33-333-3-3-3---33-333-3-3-3---33-333-3-3-3---33-333-3-3-3---|

[Verse:]

|--------------------|
|--------------------|
|--------------------| x4
|-----------5---3----|
|-3-----3-1----------|

[Pre Chorus:]

|--------------------|
|--------------------|
|--------------------|
|-0------------------|
|--------------------|

[Chorus:]

|---------------------------------|
|---------------------------------|
|---------------------------------| x4
|-0-0----0-0----1-1----3333-1-0---|
|---------------------------------|


[Interlude:]

|---------------------------------------------------|
|---------------------------------------------------|
|---------------------------------------------------| x4
|-----6---3---1--1-0-1-1-------6---1-0-1-2-1-2-1-2--|
|-3-3---3---3--------------3-3---3------------------|

|------------|
|------------|
|------------|
|-0----------|
|------------|

[Bridge:]

First Part Comes Without Bass

|---------------------|
|---------------------|
|---------------------|
|---------------------|
|-33---33---33---33---|

|---------------------------------------------------|
|---------------------------------------------------|
|---------------------------------------------------| x2
|-----6---3---1--1-0-1-1-------6---1-0-1-2-1-2-1-2--|
|-3-3---3---3--------------3-3---3------------------|

[Chorus:]

|---------------------------------|
|---------------------------------|
|---------------------------------| x4
|-0-0----0-0----1-1----3333-1-0---|
|---------------------------------|

[Ending:]

|---------------------------------------------------|
|---------------------------------------------------|
|---------------------------------------------------| x2
|-----6---3---1--1-0-1-1-------6---1-0-1-2-1-2-1-2--|
|-3-3---3---3--------------3-3---3------------------|

Suggest correction
Give kudos to tab author, rate the tab!
1 2 3 4 5
comments
print report bad tab
guest
You may want to rate the tab now too:
select rating
Please do not post tabs as comments. Select "correction" instead!