Oops, an error
Loading. Please wait.

Drunken Marksman Bass Tab

261 views 1 this week
no commentswrite comment
1 2 3 4 5
please rate
add to favorites
launch autoscroll
font size
0
reset
guitar tuner
Autoscroll
slow
fast
+/-
esc
set tempo
stop
Help us to improve Ultimate-Guitar.com Take our survey!
×
Author
Taint: "Hex Breaker" (not Drunken Marksman!)
From the album: "Secrets & Lies"

Bass tab

Tuning: one and half steps down C#-F#-B-E


intro riff A
----------------------------------------|
----------------------------------------|
----------------------------------------|
-5--2-2-2-2-2-5-2-2-2-2-2-5-5-2-5-7-7-7-|


Riff B
---------------------------------------------------|
4---------2------4---------2-----5----------2------|
------2-4---4-2--------2-4---4-2--------2-4---4-2--|
--2-2--------------2-2-------------2-2-------------|


Riff C
0:36
-----------------------------------------------------------------------|
-----------------------------------------------------------------------|
7----------5------8----------5------7----------5------8----------5-----|
--0-0--3-5---5-3----0-0--3-5---5-3----0-0--3-5---5-3----0-0--3-5---5-3-|


Riff D
0:51
--------------------------------------------------------|
--------------------------------------------------------|
-------------1---------3---------3--5-5-----------------|
--3--3-1-3-1---3-1-3-1---3-1-3-1--------3-5-5-5-5-6-5-3-|

Riff B
Riff C

Riff D


Riff E
2:01
-------------------------------------------------------|
-------------------------------------------------------|
-------------------------------------------------------|
3-3-3--3-3-3--3-3-3--1-1--3-3-3--3-3-3--3-3-3--1-1-----|


Riff F
3:03
-------------------------------------------------------------------|
-------------------------5---------------5-------------------------|
------------1-3-1--3/5-5---5-3-1-1-1/3-3---3-3/5-3-1---------------|
-1-3-3--1-3------------------------------------------3-3-1-3-3-3-3-|

Riff E
Riff F
Riff E

contact: kev417@hotmail.com
Suggest correction
Give kudos to tab author, rate the tab!
1 2 3 4 5
comments
print report bad tab
guest
You may want to rate the tab now too:
select rating
Please do not post tabs as comments. Select "correction" instead!