Oops, an error
Loading. Please wait.

Im Going To Kill Henry Ford Tab

524 views 1 this week
no commentswrite comment
1 2 3 4 5
please rate
add to favorites
launch autoscroll
font size
0
reset
how to read this tab
guitar tuner
Tab Pro tools
  • play this tab
  • loop segment
  • change instrument
  • show fretboard
  • metronome
×
Best way to learn
"Im Going To Kill Henry Ford"
Autoscroll
slow
fast
+/-
esc
set tempo
stop
Contributor
Difficulty
Tuning
intermediate
C F A# D# G C
Artist: Taint
Song: I'm Going to Kill Henry Ford
Album: Secrets & Lies
Tuning: 1 1/2 step down tuning

C#-F#-B-E-G#-C# (i think)


---------------------------------------------------------|
---------------------------------------------------------|
---------------------------------------------------------|
-5-3-------------------------5-3-------------------------|
-----5-3-1-3---------------------5-3-1-3-----------------|
-------------1-3-3-1-3-3-1-3-------------1-3-3-1-3-3-3-3-|

----------------------------------------------------------------------|
----------------------------------------------------------------------|
-12-10-------------------------12-10----------------------------------|
-------12-10-8-10--------------------12-10-8-10-----------------------|
------------------8-10-10-8-10------------------8-10-10-8-10-10-10-10-|
----------------------------------------------------------------------|

back to previous riff then


--------------------------------------------------------|
--------------------------------------------------------|
--------------------------------------------------------|
-5-5--2--5-5--2--5-5--2--5------------------------------|
--------------------------------------------------------|
-3-3--0--3-3--0--3-3--0--3-///-(slide)------------------|


Verse 1

  po    po                                 1:04
------------------------------------------]------------------|
------------------------------------------]------------------|
------0*-------------0------0*------------]--0-----0---------|
--3-0-------5-0--8\--5--3-0-------5-0--8\-]--5--3-0------5---|
--------3-0-------------------3-0---------]----------3-0-----|
3----------------6\--3-----------------6\-]--3---------------|
     *let ring                                         **bend

repeat

then

---------------------------------------|
---------------------------------------|
---------------------------------------|
-5-5--2--5-5--2--5-5--2--5-------------|
---------------------------------------|
-3-3--0--3-3--0--3-3--0--3-------------|//-(slide)

repeat verse

then


----------------------------|
----------------------------|
----------------------------|
-5-5--2--5-5--2--5-5--2--5--|
----------------------------|
-3-3--0--3-3--0--3-3--0--3--|


----------------------------------------------|
----------------------------------------------|
----9---------------------9--7-7--9-9-10-10-9-|
2---9-------------------2-9--7-7--9-9-10-10-9-|
2---7-------------------2-7--5-5--7-7--8--8-7-|
0-0---0000-0000---12\\--0---------------------|

---------------------------------------------|
---------------------------------------------|
----9---------------------9--7-7--10-10--7-7-|
2---9-------------------2-9--7-7--10-10--7-7-|
2---7-------------------2-7--5-5---8--8--5-5-|
0-0---0000-0000---12\\--0--------------------|

repeat

then bass break down


-------------------------------------------------|
-------------------------------------------------|
10-9--10-9--9-7---9-7---10-9---10-9------------0-|
10-9--10-9--9-7---9-7---10-9---10-9------------5-|
-8-7---8-7--7-5---7-5----8-7----8-7--------5-3---|
----0-----0-----0-----0------0------0--5-3-------|

repeat

-000000000000000000--0--000000000000000000--0--|
-777777888888777777--4*-777777888888777777--4*-|
-----------------------------------------------|
-----------------------------------------------|
-----------------------------------------------|
-----------------------------------------------|
                     *bend

-----15-------15-------14-------14-------17-------17------12-------12-------|
--------12-------12-------12-------12-------12-------12------12-------12----|
11/12------12-------12-------12-------12-------12------12-------12-------12-|
----------------------------------------------------------------------------|
----------------------------------------------------------------------------|
----------------------------------------------------------------------------|


--15-------15-------14-------14-----------------------|
-----12-------12-------12-------12--------------------|
12------12-------12-------12-------12-9-9-9-9-9-9-9-9-|
------------------------------------------------------|
--------------------------------------7-7-7-7-7-7-7-7-|
------------------------------------------------------|


-------------------------------------------------|
-------------------------------------------------|
10-9--10-9--9-7---9-7---10-9---10-9------------0-|
10-9--10-9--9-7---9-7---10-9---10-9------------5-|
-8-7---8-7--7-5---7-5----8-7----8-7--------5-3---|
----0-----0-----0-----0------0------0--5-3-------|

-----15-------15-------14-------14-------17-------17------12-------12-------|
--------12-------12-------12-------12-------12-------12------12-------12----|
11/12------12-------12-------12-------12-------12------12-------12-------12-|
----------------------------------------------------------------------------|
----------------------------------------------------------------------------|
----------------------------------------------------------------------------|


--15-------15-------14-------14-------19-19-19-19-19-19-19-19-19-19-19-|
-----12-------12-------12-------12-------------------------------------|
12------12-------12-------12-------12----------------------------------|
-----------------------------------------------------------------------|
-----------------------------------------------------------------------|
-----------------------------------------------------------------------|


-------------------------------------------------|
-------------------------------------------------|
10-9--10-9--9-7---9-7---10-9---10-9------------0-|
10-9--10-9--9-7---9-7---10-9---10-9------------5-|
-8-7---8-7--7-5---7-5----8-7----8-7--------5-3---|
----0-----0-----0-----0------0------0--5-3-------|


----------------------------------------------------------------------|
---------10--------12-12-12-------8---6--6-6--6-6---------------------|
-----9------9---------------------------------------------------------|
-7-7---7------9-9-------------5-5---5----3-3--3-3---------------------|
----------------------------------------------------------------------|
----------------------------------------------------------------------|


----------------------------------------------------------------------|
-10-10-10-10-10-10--12-12-12-12-12---8-8-8--6-6--6-6-6--6-6-----------|
-9--9--9--9--9--9---11-11-11-11-11------------------------------------|
-7--7--7--7--7------9--9--9--9--9----5-5-5--5-5--3-3-3--3-3-----------|
----------------------------------------------------------------------|
----------------------------------------------------------------------|


------0------------------0------0-------------|
------0--------------------3------3-----------|
------1----------------------4------4---------|
------2-------------------------------4-5-5-5-|
----------------5-----------------------------|
0-----0-----5-7---7-5--3------2-------2-3-3-3-|

------------------------0-------0-----------------|
--------------------------3-------3---------------|
----------------------------4-------4-------------|
---------------------------------------4-5-5-5--2-|
----7-5-7------5--------------------------------2-|
0----------5-7---7-5--3-------2--------2-3-3-3--0-|


------15-------15-------14-------14-------15-----14-------12--|
---12----12-------12-------12-------12--------------------12--|
12-----------12-------12-------12-------12---12------12---12--|
--------------------------------------------------------------|
--------------------------------------------------------------|
--------------------------------------------------------------|


Comments, suggestions: kev417@hotmail.com
comments
We did not receive enough feedback on this tab! Please rate:
print report bad tab
1 2 3 4 5
I want to post or [tab]
guest
You may want to rate the tab now too:
select rating
Please do not post tabs as comments. Select "correction" instead!