Oops, an error
Loading. Please wait.

Fast Car Tab

1,021 views 1 this week
no commentswrite comment
1 2 3 4 5
please rate
add to favorites
launch autoscroll
font size
0
reset
how to read this tab
guitar tuner
Autoscroll
slow
fast
+/-
esc
set tempo
stop
Help us to improve Ultimate-Guitar.com Take our survey!
×
Author
Difficulty
Capo
intermediate
6th fret
hey guys (:
i'm weirdly obsessed with this song at the moment so i thought i'd try to write a tab. 
this is my first one so sorry if there are mistakes!

FAST CAR by TAIO CRUZ
(capo 6)

INTRO-

----3----3----3----3----3----3----3----3----2----2----|
---3----3----3----3----3----3----3----3----3----3-----|
--0----0----0----0----0----0----0----0----0----0------|
------------------------------------------------------|
------------------------------------------------------|
------------------------------------------------------|
(you can play this during the verses too if you're not feeling the chords)


VERSE-

-3------------------------------2-----------------------0--|
-3------------------------------3-----------------------0--|
-0------------------------------0-----------------------0--|
--------------------------------------------------------2--|
--------------------------------------------------------2--|
--------------------------------------------------------0--|
   I'm...heartbeat \ The more I struggle the more I get deep

(SORRY, i'm not really gonna know much about the strumming. just make sure you change 
the chord on STRUGGLE and DEEP)

-0-----------0-------------3-------------------2-------------0---0-|
-0-----------1-------------3-------------------3-------------0---1-|
-0-----------0-------------0-------------------0-------------0---0-|
-2-----------2-----------------------------------------------2---2-|
-2-----------3-----------------------------------------------2---3-|
-0-----------0-----------------------------------------------0---0-|
   I go full throttle...streets \ And there is trouble...get we--ak


-0---------------3-----------------2-------------------------0---0-|
-1---------------3-----------------3-------------------------0---1-|
-0---------------0-----------------0-------------------------0---0-|
-2-----------------------------------------------------------2---2-|
-3-----------------------------------------------------------2---3-|
-0-----------------------------------------------------------0---0-|
   It's like I'm running...light \ Girl you know you make me we--ak


-0-------------3------------------3--------2---------------------|
-1-------------3------------------3--------3---------------------|
-0-------------0------------------0--------0---------------------|
-2---------------------------------------------------------------|
-3---------------------------------------------------------------|
-0---------------------------------------------------------------|
   I should be hittin'...lights \ Hold up, hold up oh!

(just strum once for each "Hold")


CHORUS- (chord progression is Em, C, G, D)

----0---------------------------0----------|
----0---------------------------1----------|
----0---------------------------0----------|
----2---------------------------2----------|
----2---------------------------3----------|
----0---------------------------0----------|
    Girl you really turn me on, on, on, on

----3------------------------3----------|
----3------------------------2----------|
----0------------------------3----------|
----0------------------------0----------|
----2------------------------X----------|
----3------------------------X----------|
You know make my engine run, run, run, run

----0-----------------------------------0----------|
----0-----------------------------------1----------|
----0-----------------------------------0----------|
----2-----------------------------------2----------|
----2-----------------------------------3----------|
----0-----------------------------------0----------|
And there's no turning back cause we've gone too far

-----3----------------------3-------|
-----3----------------------2-------|
-----0----------------------3-------|
-----0----------------------0-------|
-----2----------------------X-------|
-----3----------------------X-------|
I'll drive you like a fast car

(REPEAT CHORUS)
Girl you really turn me on, on, on, on
You know you make my engine run, run, run, run
And there's no turning back cause
We've gone too far
I'll drive you like a fast car


VERSE-
It isn't like me to get caught up
But when you running you're never quite free
I wasn't really meant to find love
But now you found me and got me all weak
It's like I'm running through a red light
Girl you know you make me weak
I should be hittin' all the brake lights
Hold up, hold up oh!


CHORUS
Girl you really turn me on, on, on, on
You know you make my engine run, run, run, run
And there's no turning back cause
We've gone too far
I'll drive you like a fast car

(REPEAT CHORUS)
Girl you really turn me on, on, on, on
You know you make my engine run, run, run, run
And there's no turning back cause
We've gone too far
I'll drive you like a fast car
 oh oh oh oh,
(Em C  G  D)
 oh oh, I'll drive you like a fast car
(Em C        G                      D)

VERSE-
I'm in a battle with my heartbeat
The more I struggle the more I get deep
I go full throttle down the dark streets
And there is trouble ahead I get weak
 I get weak, I get weak
(G           D            Em   C)
 I get weak, I get weak
(G           D          )

CHORUS-
Girl you really turn me on, on, on, on
You know you make my engine run, run, run, run
And there's no turning back cause
We've gone too far
I'll drive you like a fast car

(REPEAT CHORUS)
Girl you really turn me on, on, on,on
You know you make my engine run, run, run, run
And there's no turning back cause
We've gone too far
I'll drive you like a fast car
 oh oh oh oh,
(Em C  G  D)
 oh oh, I'll drive you like a fast car
(Em C        G                      D)

and then you end with a G CHORD or the intro tab!

hope this is rightttt. comment if there are any issues, y'all.
Suggest correction
What's this?
You can suggest a correction to this tab. Community and Mods will review your correction and vote to approve or reject it.
comments
We did not receive enough feedback on this tab! Please rate:
print report bad tab
1 2 3 4 5
guest
You may want to rate the tab now too:
select rating
Please do not post tabs as comments. Select "correction" instead!