Oops, an error
Loading. Please wait.

Queen Bee Tab

version 2
version 2

Whole song

10,838 views 48 this week
no commentswrite comment
1 2 3 4 5
x 5
add to favorites
launch autoscroll
font size
0
reset
how to read this tab
guitar tuner
Autoscroll
slow
fast
+/-
esc
set tempo
stop
Help us to improve Ultimate-Guitar.com Take our survey!
×
Author
Difficulty
advanced
e|-3--0---0-----------0-----------------|
B|------3-----0---------3---0-----------|
G|------------------------2-----0-------|  (x2)
D|----0-----0---2---2---2-----2---0---0-|
A|--------------------------------------|
E|-3----3-----0---0---0---0-----3---3---|

e|-----------------------------0---------|
B|---0-----0-----0---------0-------0-----|
G|-0-----0-----0---------0-------------0-|  (x2)
D|-----2-----2-----0---0-----2-------2---|
A|---3-----3---------------3-----3-------|
E|---------------3---3-----------------3-|

e|-----------------------------------------|
B|---------------0-----------------0-------|
G|-----------0-----------------0-2---0-----|  (x2)
D|-0---2---0-------2---0---2---0-------2---|
A|-----------------------------------------|
E|---3---3-----3-----3---3---3-----3-----3-|
Suggest correction
comments
print report bad tab
guest
You may want to rate the tab now too:
select rating
Wanna post a correction for this tab? Suggest correction