Oops, an error
Loading. Please wait.

Na Co Cie Stac Tab

453 views 1 this week
no commentswrite comment
1 2 3 4 5
please rate
add to favorites
launch autoscroll
font size
0
reset
how to read this tab
guitar tuner
Autoscroll
slow
fast
+/-
esc
set tempo
stop
Help us to improve Ultimate-Guitar.com Take our survey!
×
Author
Difficulty
Amadi 127
intermediate
It's my first tab so pls rate!
Tab by: Amadi
Song: TSA - Na Co Cię Stać
Album: TSA
Year: 1983

    intro
1st guitar
  e |------------------------------------------------------------------|
  B |------------------------------------------------------------------|
  G |------------------------------------------------------------------|
  D |------------------------------------------------------------------|
  A |0-0-7-5-7-5-0-0-0-0-5-3-5-3-0-0-0-0-7-5-7-5-0-0-10-9-9-10-9-9-10-9|
  E |------------------------------------------------------------------|

2nd guitar
  e |------------------------------------------------------------------|
  B |------------------------------------------------------------------|
  G |2-----------------------------------------------------------------|
  D |2-----------------------------------------------------------------|
  A |0-----------------------------------------------------------------|
  E |------------------------------------------------------------------|

1st guitar
  e |------------------------------------------------------------------|
  B |------------------------------------------------------------------|
  G |------------------------------------------------7-----------------|
  D |--------------------------------------------2-5-7-7---------------|
  A |0-0-7-5-7-5-0-0-0-0-5-3-5-3-0-0-0-0-7-5-7-5-2-5-5-7---------------|
  E |--------------------------------------------0-3---5---------------|
                                                                      x4
    verse
  e |------------------------------------------------------------------|
  B |------------------------------------------------------------------|
  G |-----77\5----------7----------------------------------------------|
  D |77\5-77\5-77\5-2-5-7-7--------------------------------------------|
  A |77\5-55\3-77\5-2-5-5-7--------------------------------------------|
  E |55\3------55\3-0-3---5--------------------------------------------|
                                                                      x4
    chorus
  e |------------------------------------------------------------------|
  B |------------------------------------------------------------------|
  G |------------------------------------------------------------------|
  D |7--5--2-----------------------------------------------------------|
  A |7--5--2-0-2/5/7---0-2/5/7-----------------------------------------|
  E |5--3--0---------0-------------------------------------------------|
                                                                      x3
    ending chorus
  e |------------------------------------------------------------------|
  B |------------------------------------------------------------------|
  G |------2-----------------------------------------------------------|
  D |7--5--2-----------------------------------------------------------|
  A |7--5--0-----------------------------------------------------------|
  E |5--3--------------------------------------------------------------|

    verse
  e |------------------------------------------------------------------|
  B |------------------------------------------------------------------|
  G |-----77\5----------7----------------------------------------------|
  D |77\5-77\5-77\5-2-5-7-7--------------------------------------------|
  A |77\5-55\3-77\5-2-5-5-7--------------------------------------------|
  E |55\3------55\3-0-3---5--------------------------------------------|
                                                                      x4
    chorus
  e |------------------------------------------------------------------|
  B |------------------------------------------------------------------|
  G |------------------------------------------------------------------|
  D |7--5--2-----------------------------------------------------------|
  A |7--5--2-0-2/5/7---0-2/5/7-----------------------------------------|
  E |5--3--0---------0-------------------------------------------------|
                                                                      x3
    ending chorus
  e |------------------------------------------------------------------|
  B |------------------------------------------------------------------|
  G |------2-----------------------------------------------------------|
  D |7--5--2-----------------------------------------------------------|
  A |7--5--0-----------------------------------------------------------|
  E |5--3--------------------------------------------------------------|

    solo
2nd guitar
  e |------------------------------------------------------------------|
  B |------------------------------------------------------------------|
  G |-------------------------------77\5----------7------77\5----------7
  D |2---5--2-----2---5--2-----77\5-77\5-77\5-2-5-7-77\5-77\5-77\5-2-5-7
  A |2---5--2-----2---5--2-----77\5-55\3-77\5-2-5-5-77\5-55\3-77\5-2-5-5
  E |0---3--0-----0---3--0-----55\3------55\3-0-3---55\3------55\3-0-3-|

  e |------------------------------------------------------------------|
  B |------------------------------------------------------------------|
  G |-------------------------------77\5----------7------77\5----------7
  D |2---5--2-----2---5--2-----77\5-77\5-77\5-2-5-7-77\5-77\5-77\5-2-5-7
  A |2---5--2-----2---5--2-----77\5-55\3-77\5-2-5-5-77\5-55\3-77\5-2-5-5
  E |0---3--0-----0---3--0-----55\3------55\3-0-3---55\3------55\3-0-3-|

    chorus
  e |------------------------------------------------------------------|
  B |------------------------------------------------------------------|
  G |------------------------------------------------------------------|
  D |7--5--2-----------------------------------------------------------|
  A |7--5--2-0-2/5/7---0-2/5/7-----------------------------------------|
  E |5--3--0---------0-------------------------------------------------|
                                                                      x3
    ending chorus
  e |------------------------------------------------------------------|
  B |------------------------------------------------------------------|
  G |------2-----------------------------------------------------------|
  D |7--5--2-----------------------------------------------------------|
  A |7--5--0-----------------------------------------------------------|
  E |5--3--------------------------------------------------------------|

    outro
1st guitar
  e |------------------------------------------------------------------|
  B |------------------------------------------------------------------|
  G |------------------------------------------------------------------|
  D |------------------------------------------------------------------|
  A |0-0-7-5-7-5-0-0-0-0-5-3-5-3-0-0-0-0-7-5-7-5-0-0-10-9-9-10-9-9-10-9|
  E |------------------------------------------------------------------|

  e |------------------------------------------------------------------|
  B |------------------------------------------------------------------|
  G |------------------------------------------------7-----------------|
  D |--------------------------------------------2-5-7-7---------------|
  A |0-0-7-5-7-5-0-0-0-0-5-3-5-3-0-0-0-0-7-5-7-5-2-5-5-7---------------|
  E |--------------------------------------------0-3---5---------------|
                                                                      x2
    verse
  e |------------------------------------------------------------------|
  B |------------------------------------------------------------------|
  G |-----77\5----------7----------------------------------------------|
  D |77\5-77\5-77\5-2-5-7-7--------------------------------------------|
  A |77\5-55\3-77\5-2-5-5-7--------------------------------------------|
  E |55\3------55\3-0-3---5--------------------------------------------|
                                                                      x4
    chorus
  e |------------------------------------------------------------------|
  B |------------------------------------------------------------------|
  G |------------------------------------------------------------------|
  D |7--5--2-----------------------------------------------------------|
  A |7--5--2-0-2/5/7---0-2/5/7-----------------------------------------|
  E |5--3--0---------0-------------------------------------------------|
                                                                      x8
    ending chorus
  e |------------------------------------------------------------------|
  B |------------------------------------------------------------------|
  G |------2-----------------------------------------------------------|
  D |7--5--2-----------------------------------------------------------|
  A |7--5--0-----------------------------------------------------------|
  E |5--3--------------------------------------------------------------|

Tab by: Amadi
Song: TSA - Na Co Cię Stać
Album: TSA
Year: 1983
Suggest correction new What's this?
You can suggest a correction to this tab. Community and Mods will review your correction and vote to approve or reject it.
comments
We did not receive enough feedback on this tab! Please rate:
print report bad tab
1 2 3 4 5
guest
You may want to rate the tab now too:
select rating
Please do not post tabs as comments. Select "correction" instead!