Oops, an error
Loading. Please wait.

Back For Good Tab

version 1
version 1

Whole song

Video

13,081 views 3 this week
1 commentread comment
1 2 3 4 5
2 more votes to show rating
add to favorites
launch autoscroll
font size
0
reset
how to read this tab
guitar tuner
Autoscroll
slow
fast
+/-
esc
set tempo
stop
Help us to improve Ultimate-Guitar.com Take our survey!
×
Author
Difficulty
Capo
novice
1st fret
Take That - Back for Good (as performed by Boyce Avenue)

Arranged by: Alejandro Manzano of Boyce Avenue
Tabbed by: Tyler Sherrod


Video of Alejandro playing/singing it:
http://www.youtube.com/watch?v=eLGiTV2oP10

Tuning: Standard (capo 1st fret)

x = mute
/ = slide
^ = hammer on


Intro:
--0----0----3----0----0-----0----0----3----0----0---|
--0----2----0----0----0-----0----2----0----0----0---|
--0----2----0----2----2-----0----2----0----2----2---|
--2----0----0----2----2-----2----0----0----2----2---|
--3----3----3----3----2-----3----3----3----3----2---|
--2----3----3----2----0-----2----3----3----2----0---|


Verse 1 & 2: (slight palm mute)
--0----0----3----0----0-----0----0----3----0----0---|
--0----2----0----0----0-----0----2----0----0----0---|
--0----2----0----2----2-----0----2----0----2----2---|  repeat 2 times
--2----0----0----2----2-----2----0----0----2----2---|
--3----3----3----3----2-----3----3----3----3----2---|
--2----3----3----2----0-----2----3----3----2----0---|


Pre-chorus 1 & 2: (slight palm mute)
--0----0----3----0----0-----0----0----3----0----0---|
--0----2----0----0----0-----2----0----0----0----0---|
--0----2----0----2----2-----4----2----0----2----2---|
--2----0----0----2----2-----4----2----0----2----2---|
--3----3----3----3----2-----3----2----3----3----2---|
--2----3----3----2----0-----0----0----3----2----0---|


Chorus:
--0----0----3----0----0-----0----0----3----0----0---|
--0----2----0----0----0-----0----2----0----0----0---|
--0----2----0----2----2-----0----2----0----2----2---|  repeat 2 times   
--2----0----0----2----2-----2----0----0----2----2---|
--3----3----3----3----2-----3----3----3----3----2---|
--2----3----3----2----0-----2----3----3----2----0---|


Bridge:
--3----0----0----0--|                         
--0----0----0----0--|                        
--0----0----0----0--| (Repeat 3x)    
--0----2----2----2--|                         
--0----2----3----2--|                         
--2----0----0----0--|                         

(continued)
---0----0---3---0---0---0----x----x----x----|
---2----0---0---2---0---0----0----0----x----|
---4----2---0---2---2---2----2----2----x----|
---4----2---0---0---2---2----2----2----x----|
---3----2---3---3---3---2----2----3----3/5--|
---0----0---3---3---2---0----0----0----x----|

Chorus:
--0----0----3----0----0-----0----0----3----0----0---|
--0----2----0----0----0-----0----2----0----0----0---|
--0----2----0----2----2-----0----2----0----2----2---|  repeat 4 times
--2----0----0----2----2-----2----0----0----2----2---|
--3----3----3----3----2-----3----3----3----3----2---|
--2----3----3----2----0-----2----3----3----2----0---|

Outro:
(slight palm mute)
--0----0----3----0----0---|
--0----2----0----0----0---|
--0----2----0----2----2---|
--2----0----0----2----2---|
--3----3----3----3----2^3-|
--2----3----3----2----0---|

(continued)
(open strum)
--0----0----3----0----0----0--|
--0----2----0----0----0----0--|
--0----2----0----2----2----0--|
--2----0----0----2----2----2--|
--3----3----3----3----2----3--|
--2----3----3----2----0----2--|
Suggest correction
Give kudos to tab author, rate the tab!
1 2 3 4 5
comments
print report bad tab
1 comment total.
0 reply
Nat:) 61 Aug 09, 2011 12:44 PM

Is this tabbed upside down or am I going mental? :L

guest
You may want to rate the tab now too:
select rating
Wanna post a correction for this tab? Suggest correction