Oops, an error
Loading. Please wait.

Patience Tab

version 3
version 3

Whole song

Interactive

38,015 views 18 this week
2 commentsread comments
1 2 3 4 5
excellent!
x 20
add to favorites
launch autoscroll
font size
0
reset
how to read this tab
guitar tuner
Autoscroll
slow
fast
+/-
esc
set tempo
stop
Help us to improve Ultimate-Guitar.com Take our survey!
×
Contributor
Difficulty
Capo
novice
3rd fret
IMPORTANT: CAPO ON 3RD FRET 

Intro:

e|---------------------------------------------------------------|
B|---------------3-------3-------3-------------------------------|
G|-------0---------0-------0---2---2-----------------------------|
D|-------------0-------2-----0-----------------------------------|
A|-----2-------------3-------------------------------------------|
E|---0-----2-3---------------------------------------------------|

verse 1:

this is the riff fro all of the verses

e|---------------------------------------------------------------|
B|---------------3-------3-------3-------------------------------|
G|-------0---------0-------0---2---2-----------------------------|
D|-------------0-------2-----0-----------------------------------|X4
A|-----2-------------3-------------------------------------------|
E|---0-----2-3---------------------------------------------------|


Just have a little  patience
Still hurting from a love I lost,
I’m feeling your frustration,
but in any minute all the pain will stop,

PRE CHORUS:

       Cadd9      G                         Cadd9
just hold me close inside your arms tonight, 
                   A
don’t be to hard on my emotions.

CHORUS:

      em  Cadd9 G  D       em     Cadd9  G  D
Cause I,              need time,
         em      Cadd9   
My heart is numb has no feeling
   G              D
So while I’m still healing
      em  Cadd9 G  D            em     G       C   D
Just try,            and have a little patience

VERSE:

Verse:
I really wanna start over again
I know you wanna be my salvation
The one that I can always depend

Pre-Chorus
I’ll try to be strong, believe me I’m trying to move on
Its complicated but understand me,

Chrous:
Cause I, need time,
My heart is numb has no feeling
So while I’m still healing
                     C         G
Just try, and have a little patience yeah
       C         G
Have a little patience yeah.
          C            h
Cause the scars run so deep,
         a          G               D
its been hard but I have to believe
       em        G     C    D
have a little patience
       em        G     C    D
have a little patience

Woohoo

Chorus:
Cause I, I just need time,
My heart is numb has no feeling
So while I’m still healing
Just try, and have a little patience
Have a little patience

My heart is numb has no feeling
So while I’m still healing
Just try, and have a little patience
Suggest correction What's this?
You can suggest a correction to this tab. Community and Mods will review your correction and vote to approve or reject it.
comments
print report bad tab
2 comments total.
0 reply
martin sandford 140 wrote on May 20 2010, 11:02 am

sounds dandy to me :) 5 stars :)

+2 reply
LiveAtSlaneCast 57 wrote on July 20 2013, 12:28 pm

good stuff, but a little mistake in the intro. while playing the C shape thingy, it goes like this:

e|---------------------------------------------------------------|
B|---------------3-------3-------3-------------------------------|
G|-------0---------0---0---0---2---2-----------------------------|
D|-------------0-------------0-----------------------------------|
A|-----2-------------3-------------------------------------------|
E|---0-----2-3---------------------------------------------------|

I want to post or [tab]
guest
You may want to rate the tab now too:
select rating
Please do not post tabs as comments. Select "correction" instead!