Oops, an error
Loading. Please wait.

Shine Bass Tab

version 1
version 1

Whole song

Interactive

7,507 views 15 this week
no commentswrite comment
1 2 3 4 5
accurate
x 6
add to favorites
launch autoscroll
font size
0
reset
guitar tuner
Autoscroll
slow
fast
+/-
esc
set tempo
stop
Help us to improve Ultimate-Guitar.com Take our survey!
×
Author
-------------------------------------------------------------------------------
			     Shine - Take That
-------------------------------------------------------------------------------
Tabbed by: Reesjr
Email: reesjunior@hotmail.co.uk
This my first tab =]
Tuning:EADG
(b)= break
Intro:


Intro
G|----------------------| x2
D|----------------------|
A|-6-6-6-6-6-6-6-6------|
E|----------------------|


VERSE: You, You`re such
G|--------------------------------------------------------------------------------|
D|--------------------------------------------------------------------------------|
A|-6-6-6-6-6-6-6-6--------------------1-1-1-1-1-1-1-1-----------------------------|
E|-------------------3-3-3-3-3-3-3-3--------------------4-4-4-4-4-4-4-4-----------|x2

G|---------------------------------------------------------------------------------|
D|---------------------------------------------------------------------------------|
A|--2-2-2-2-2-2-2-2--6-6-6-6--1-1-1-1-------------------------------1-1-1-1--------|
E|---------------------------------------4-4-4-4--3-3-3-3--1-1-1-1-----------------|

G|--------------------|
D|--------------------|
A|--------------------|
E|-1-1-1-1-1-1-1-1----|

CHORUS: So come on, so come on...
G|-----------------------------------------------------------------------------|
D|-----------------------------------------------------------------------------|
A|-6-6-6-6--1-1-1-1--3-3-3-3--1-1-1-1-----------------------------1-1-1-1------|
E|---------------------------------------4-4-4-4--3-3-3-3--1-1-1-1-------------|

G|-----------------------------------------------------------------------------|
D------------------------------------------------------------------------------|
A|-6-6-6-6--1-1-1-1--3-3-3-3--1-1-1-1--6-6-6-6-6-6-6-6-6-6-6-6-6-6-6-6-6-------|
E|-----------------------------------------------------------------------------|

VERSE: Stop, Stop

G|----------------------------------------------------------------------------------|
D|----------------------------------------------------------------------------------|
A|-6-6-6-6-6-6-6-6-(b)--------------1-1-1-1-1-1-1-1---------------------------------|
E|-------------------3-3-3-3-3-3-3-3--------------------4-4-4-4-4-4-4-4-------------|x2


G|-----------------------------------------------------------------------------|
D|-----------------------------------------------------------------------------|
A|--2-2-2-2-2-2-2-2--6-6-6-6--1-1-1-1-----------------------------1-1-1-1------|
E|---------------------------------------4-4-4-4--3-3-3-3--1-1-1-1-------------|

G|-------------------|
D|-------------------|
A|-------------------|
E|-1-1-1-1-1-1-1-1---|


CHORUS: So come on,
G|-----------------------------------------------------------------------------|
D|-----------------------------------------------------------------------------|
A|-6-6-6-6--1-1-1-1--3-3-3-3--1-1-1-1-----------------------------1-1-1-1------|
E|---------------------------------------4-4-4-4--3-3-3-3--1-1-1-1-------------|

G|-----------------------------------------------------------------------------|
D|-----------------------------------------------------------------------------|
A|-6-6-6-6--1-1-1-1--3-3-3-3--1-1-1-1--6-6-6-6-6-6-6-6-6-6-6-6-6-6-6-6-6-------|
E|-----------------------------------------------------------------------------|

BRIDGE: Hey, Let Me Show Ya
G|-----------------------------------------------------------------------------|
D|-----------------------------------------------------------------------------|
A|-6-6-6-6-6-6-6-6--4-4-4-4-4-4-4-4--3-3-3-3--4-4-4-4--6-6-6-6-6-6-6-6---------|
E|-----------------------------------------------------------------------------|x2

G------------------------------------------------------------------------------|
D|-----------------------------------------------------------------------------|
A|-6-6-6-6--1-1-1-1--3-3-3-3--1-1-1-1-----------------------------1-1-1-1------|
E|---------------------------------------4-4-4-4--3-3-3-3--1-1-1-1-------------|

G|-----------------------------------------------------------------------------|
D|-----------------------------------------------------------------------------|
A|-6-6-6-6--1-1-1-1--3-3-3-3--1-1-1-1--6-6-6-6-6-6-6-6-6-6-6-6-6-6-6-6-6-------|
E|-----------------------------------------------------------------------------|

BRIDGE: Hey, Let Me Show Ya
G|-----------------------------------------------------------------------------|
D|-----------------------------------------------------------------------------|
A|-6-6-6-6-6-6-6-6--4-4-4-4-4-4-4-4--3-3-3-3--4-4-4-4--6-6-6-6-6-6-6-6---------|
E|-----------------------------------------------------------------------------|x4
Suggest correction
comments
print report bad tab
guest
You may want to rate the tab now too:
select rating
Wanna post a correction for this tab? Suggest correction