Oops, an error
Loading. Please wait.

Shine Tab

version 1
version 1

Whole song

Interactive

17,898 views 1 this week
no commentswrite comment
1 2 3 4 5
accurate
x 5
add to favorites
launch autoscroll
font size
0
reset
how to read this tab
guitar tuner
Tab Pro tools
  • play this tab
  • loop segment
  • change instrument
  • show fretboard
  • metronome
×
Best way to learn
"Shine"
Autoscroll
slow
fast
+/-
esc
set tempo
stop
Contributor
-------------------------------------------------------------------------------
                             Shine - Take That
-------------------------------------------------------------------------------
Tabbed by: Slurms
Email: slurms.mckenzie@hotmail.com

Tuning:EADGBE  (NO CAPO)

Intro:
(1 sec)

Rhythm                                     Lead
e|------------------|         e|-----------------------|
B|------------------|         B|-----------------------|
G|-8-8-8-8-8-8-8-8-| x2    G|--10~~~-10p-8p-3----------| x2
D|-8-8-8-8-8-8-8-8-|         D|------------------------|
A|-6-6-6-6-6-6-6-6-|         A|------------------------|
E|------------------|         E|-----------------------|



VERSE: You, You`re such...
(5 secs)

e|--------------------------------------------------------------------------------|
B|--------------------------------------------------------------------------------|
G|-8-8-8-8-8-8-8-8--------------------3-3-3-3-3-3-3-3-----------------------| x 2-|
D|-8-8-8-8-8-8-8-8--5-5-5-5-5-5-5-5--3-3-3-3-3-3-3-3--6-6-6-6-6-6-6-6-------------|
A|-6-6-6-6-6-6-6-6--5-5-5-5-5-5-5-5--1-1-1-1-1-1-1-1--6-6-6-6-6-6-6-6-------------|
E|-------------------3-3-3-3-3-3-3-3--------------------4-4-4-4-4-4-4-4-----------|

e|-----------------------------------------------------------------------------|
B|-----------------------------------------------------------------------------|
G|--4-4-4-4-4-4-4-4--8-8-8-8--3-3-3-3------------------------------3-3-3-3-----|
D|--4-4-4-4-4-4-4-4--8-8-8-8--3-3-3-3--6-6-6-6--6-6-6-6--3-3-3-3--3-3-3-3------|
A|--2-2-2-2-2-2-2-2--6-6-6-6--1-1-1-1--6-6-6-6--6-6-6-6--3-3-3-3--1-1-1-1------|
E|---------------------------------------4-4-4-4--3-3-3-3--1-1-1-1-------------|

e|--------------------|
B|--------------------|
G|--------------------|
D|-3-3-3-3-3-3-3-3----|
A|-3-3-3-3-3-3-3-3----|
E|-1-1-1-1-1-1-1-1----|

CHORUS: So come on, so come on...
(40 secs)

e|-----------------------------------------------------------------------------|
B|-----------------------------------------------------------------------------|
G|-8-8-8-8--3-3-3-3--5-5-5-5--3-3-3-3------------------------------3-3-3-3-----|
D|-8-8-8-8--3-3-3-3--5-5-5-5--3-3-3-3--6-6-6-6--6-6-6-6--3-3-3-3--3-3-3-3------|
A|-6-6-6-6--1-1-1-1--3-3-3-3--1-1-1-1--6-6-6-6--6-6-6-6--3-3-3-3--1-1-1-1------|
E|---------------------------------------4-4-4-4--3-3-3-3--1-1-1-1-------------|

e|-----------------------------------------------------------------------------|
B|-----------------------------------------------------------------------------|
G|-8-8-8-8--3-3-3-3--5-5-5-5--3-3-3-3--8-8-8-8-8-8-8-8-8-8-8-8-8-8-8-8-8-------|
D|-8-8-8-8--3-3-3-3--5-5-5-5--3-3-3-3--8-8-8-8-8-8-8-8-8-8-8-8-8-8-8-8-8-------|
A|-6-6-6-6--1-1-1-1--3-3-3-3--1-1-1-1--6-6-6-6-6-6-6-6-6-6-6-6-6-6-6-6-6-------|
E|-----------------------------------------------------------------------------|

VERSE: Stop, Stop
(1 min 4 secs)

e|--------------------------------------------------------------------------------|
B|--------------------------------------------------------------------------------|
G|-8-8-8-8-8-8-8-8--------------------3-3-3-3-3-3-3-3-----------------------| x 2-|
D|-8-8-8-8-8-8-8-8--5-5-5-5-5-5-5-5--3-3-3-3-3-3-3-3--6-6-6-6-6-6-6-6-------------|
A|-6-6-6-6-6-6-6-6--5-5-5-5-5-5-5-5--1-1-1-1-1-1-1-1--6-6-6-6-6-6-6-6-------------|
E|-------------------3-3-3-3-3-3-3-3--------------------4-4-4-4-4-4-4-4-----------|

e|-----------------------------------------------------------------------------|
B|-----------------------------------------------------------------------------|
G|--4-4-4-4-4-4-4-4--8-8-8-8--3-3-3-3------------------------------3-3-3-3-----|
D|--4-4-4-4-4-4-4-4--8-8-8-8--3-3-3-3--6-6-6-6--6-6-6-6--3-3-3-3--3-3-3-3------|
A|--2-2-2-2-2-2-2-2--6-6-6-6--1-1-1-1--6-6-6-6--6-6-6-6--3-3-3-3--1-1-1-1------|
E|---------------------------------------4-4-4-4--3-3-3-3--1-1-1-1-------------|

e|-------------------|
B|-------------------|
G|-------------------|
D|-3-3-3-3-3-3-3-3---|
A|-3-3-3-3-3-3-3-3---|
E|-1-1-1-1-1-1-1-1---|


CHORUS: So come on, so come on...
(1 min 39 secs)

e|-----------------------------------------------------------------------------|
B|-----------------------------------------------------------------------------|
G|-8-8-8-8--3-3-3-3--5-5-5-5--3-3-3-3------------------------------3-3-3-3-----|
D|-8-8-8-8--3-3-3-3--5-5-5-5--3-3-3-3--6-6-6-6--6-6-6-6--3-3-3-3--3-3-3-3------|
A|-6-6-6-6--1-1-1-1--3-3-3-3--1-1-1-1--6-6-6-6--6-6-6-6--3-3-3-3--1-1-1-1------|
E|---------------------------------------4-4-4-4--3-3-3-3--1-1-1-1-------------|

e|-----------------------------------------------------------------------------|
B|-----------------------------------------------------------------------------|
G|-8-8-8-8--3-3-3-3--5-5-5-5--3-3-3-3--8-8-8-8-8-8-8-8-8-8-8-8-8-8-8-8-8-------|
D|-8-8-8-8--3-3-3-3--5-5-5-5--3-3-3-3--8-8-8-8-8-8-8-8-8-8-8-8-8-8-8-8-8-------|
A|-6-6-6-6--1-1-1-1--3-3-3-3--1-1-1-1--6-6-6-6-6-6-6-6-6-6-6-6-6-6-6-6-6-------|
E|-----------------------------------------------------------------------------|

BRIDGE: Hey, Let Me Show Ya
(2 mins 3 sec)

e|-----------------------------------------------------------------------------|
B|-----------------------------------------------------------------------------|
G|-8-8-8-8-8-8-8-8--6-6-6-6-6-6-6-6--6-6-6-6--6-6-6-6--8-8-8-8-8-8-8-8---------| x2
D|-8-8-8-8-8-8-8-8--6-6-6-6-6-6-6-6--6-6-6-6--6-6-6-6--8-8-8-8-8-8-8-8---------|
A|-6-6-6-6-6-6-6-6--4-4-4-4-4-4-4-4--3-3-3-3--4-4-4-4--6-6-6-6-6-6-6-6---------|
E|-----------------------------------------------------------------------------|


CHORUS: So come on, so come on...
(2 mins 25 secs)

e|-----------------------------------------------------------------------------|
B|-----------------------------------------------------------------------------|
G|-8-8-8-8--3-3-3-3--5-5-5-5--3-3-3-3------------------------------3-3-3-3-----|
D|-8-8-8-8--3-3-3-3--5-5-5-5--3-3-3-3--6-6-6-6--6-6-6-6--3-3-3-3--3-3-3-3------|
A|-6-6-6-6--1-1-1-1--3-3-3-3--1-1-1-1--6-6-6-6--6-6-6-6--3-3-3-3--1-1-1-1------|
E|---------------------------------------4-4-4-4--3-3-3-3--1-1-1-1-------------|

e|-----------------------------------------------------------------------------|
B|-----------------------------------------------------------------------------|
G|-8-8-8-8--3-3-3-3--5-5-5-5--3-3-3-3--8-8-8-8-8-8-8-8-8-8-8-8-8-8-8-8-8-------|
D|-8-8-8-8--3-3-3-3--5-5-5-5--3-3-3-3--8-8-8-8-8-8-8-8-8-8-8-8-8-8-8-8-8-------|
A|-6-6-6-6--1-1-1-1--3-3-3-3--1-1-1-1--6-6-6-6-6-6-6-6-6-6-6-6-6-6-6-6-6-------|
E|-----------------------------------------------------------------------------|

BRIDGE: Hey, Let Me Show Ya
(2 mins 46 secs)

e|-----------------------------------------------------------------------------|
B|-----------------------------------------------------------------------------|
G|-8-8-8-8-8-8-8-8--6-6-6-6-6-6-6-6--6-6-6-6--6-6-6-6--8-8-8-8-8-8-8-8---------| x4
D|-8-8-8-8-8-8-8-8--6-6-6-6-6-6-6-6--6-6-6-6--6-6-6-6--8-8-8-8-8-8-8-8---------|
A|-6-6-6-6-6-6-6-6--4-4-4-4-4-4-4-4--3-3-3-3--4-4-4-4--6-6-6-6-6-6-6-6---------|
E|-----------------------------------------------------------------------------|

 END


| /  slide up
| \  slide down
| h  hammer-on
| p  pull-off
| ~  vibrato
| +  harmonic
| x  Mute note
===============================================================================
comments
print report bad tab
I want to post or [tab]
guest
You may want to rate the tab now too:
select rating
Please do not post tabs as comments. Select "correction" instead!