Oops, an error
Loading. Please wait.

The Price Of Freedom tab

version 4
version 4

Whole song

Interactive

2,822 views 1 this week
no commentswrite comment
1 2 3 4 5
3 more votes to show rating
add to favorites
×
Save as Personal and add changes to this tab that will be seen only by you. Learn more ›
×
You can save this tab as Personal to edit and correct it or add notes. All changes will be seen only by you. Learn more »
launch autoscroll
font size
0
reset
how to read this tab
guitar tuner
edit
Autoscroll
slow
fast
+/-
esc
set tempo
stop
Author
Difficulty
-----------------------------------------------------------------------------
                        The Price Of Freedom – Takeharu Ishimoto
-----------------------------------------------------------------------------
Tabbed by: Wierdbloodspot (Robert Faulkner)
Email: rfaulkner25@live.com

Tuning: Standard (E,A,D,G,B,e)


Gtr. 1 Intro Acoustic (Played throughout song)
e|-0---0-0-0--0----------------3---3-3-3--0---0-0--3-0-2-0------|
B|-0---0-0-0--1---1-1—-1-1-1-1-0---0-0-0--0---0-0—-3-3-3-3------|
G|-0---0-0-0--0---0-0--0-0-0-0-0---0-0-0--0---0-0--2-2-2-2------|
D|-2---2-2-2--2---2-2--2-2-2-2-0---0-0-0--2---2-2--0-0-0-0------|
A|-2—--2-2-2--3---3-3--3-3-3-3-2---2-2-2--2---2-2---------------|
E|-0---0-0-0--3----------------3---3-3-3—-0---0-0---------------|

Gtr. 2 Acoustic
e|------------------------------------------|
B|--8-10—10/12--13-8----8-10-10/12-10--8-7--|
G|------------------------------------------|
D|------------------------------------------|
A|------------------------------------------|
E|------------------------------------------|

Gtr. 3 Acoustic (Played at the end of each part for the last two parts!!)
e|--3-5—5/7--5-3-2-|
B|-----------------|
G|-----------------|
D|-----------------|
A|-----------------|
E|-----------------|

Gtr. 3 Electric (Probably need a foot pedal for Gtr. 2 & Gtr. 3)
e|----------------------------|
B|----------------------------|
G|--x-9--9-9\5-------9--9-9\5-|
D|--x-9--9-9\5-5-5---9--9-9\5-|
A|--x-7--7-7\3-5-5---7--7-7\3-|
E|-------------3-3------------|
  * no palm mute & let notes ring

Gtr. 2 Electric
e|--------------------------------------------------------------------------|
B|--------------------------------------------------------------------------|
G|-------------12-14-----------------------12-14----12b---------------------|
D|-------12-14-------14-12-----------12-14-------14-------------------------|
A|-12-14-----------------------12-14----------------------------------------|
E|--------------------------------------------------------------------------|

************************************

| /   slide up
| \   slide down
| h   hammer-on
| p   pull-off
| ~   vibrato
Suggest correction
Creating personal tab
Creating personal tab
You can edit any tab online and save it as your Personal.

You can edit, replace or remove any tab part or add personal notes – all changes will be seen only by you.

Personal tabs can be accessed anytime from any device, even offline.
Learn more »
Give kudos to tab author, rate the tab!
1 2 3 4 5
comments
print report bad tab
guest
You may want to rate the tab now too:
select rating
Wanna post a correction for this tab? Suggest correction