Oops, an error
Loading. Please wait.

The Price Of Freedom tab

version 5
version 5

Whole song

Interactive

91 views 1 this week
no commentswrite comment
1 2 3 4 5
3 more votes to show rating
add to favorites
×
Save as Personal and add changes to this tab that will be seen only by you. Learn more ›
×
You can save this tab as Personal to edit and correct it or add notes. All changes will be seen only by you. Learn more »
launch autoscroll
font size
0
reset
how to read this tab
guitar tuner
edit
Autoscroll
slow
fast
+/-
esc
set tempo
stop
Author
Difficulty
I just transcribed lyrics and chords.  
Credit for lyrics goes to:https://www.youtube.com/watch?v=PHNS95swx9c
Credit for chords goes to Takeharu Ishimoto's Pro Tab
Suggestions for an edit? shaolimper@gmail.com.


[Acoustic]

   In the beginning     it was only a dream
E|--------------------|---------------------|
B|-8-10--10h12--13-8--|-8-10--10h12-10-8-7--|
G|--------------------|---------------------|
D|--------------------|---------------------|
A|--------------------|---------------------|
E|--------------------|---------------------|

 Full of life and pride, still so young inside
E|--------------------|---------------------|
B|-8-10--10h12--13-8--|-8-10--10h12-10-8-7--|
G|--------------------|---------------------|
D|--------------------|---------------------|
A|--------------------|---------------------|
E|--------------------|---------------------|

 Couldn't believe that would happen to me
E|--------------------|---------------------|
B|-8-10--10h12--13-8--|-8-10--10h12-10-8-7--|
G|--------------------|---------------------|
D|--------------------|---------------------|
A|--------------------|---------------------|
E|--------------------|---------------------|

 Put my trust in that but they turned their back
E|--------------------|---------------------|
B|-8-10--10h12--13-8--|-8-10--10h12-10-8-7--|
G|--------------------|---------------------|
D|--------------------|---------------------|
A|--------------------|---------------------|
E|--------------------|---------------------|


 Never saw the dark in their eyes so bright
E|--------------------|---------------------|
B|-8-10--10h12--13-8--|-8-10--10h12-10-8-7--|
G|--------------------|---------------------|
D|--------------------|---------------------|
A|--------------------|---------------------|
E|--------------------|---------------------|

 Though I'm not alone time does take a toll
E|--------------------|---------------------|
B|-8-10--10h12--13-8--|-8-10--10h12-10-8-7--|
G|--------------------|---------------------|
D|--------------------|---------------------|
A|--------------------|---------------------|
E|--------------------|---------------------|

 (electric)
 I will keep my dreams an pride
E|-----------------------------------------|
B|-----------------------------------------|
G|-------------12-14-----------------------|
D|-------12-14-------14---12---------------|
A|-12-14-----------------------------------|
E|-----------------------------------------|

 Never giving up the fight, never
E|-----------------------------------------|
B|-----------------------------------------|
G|-------------12-14--------12-------------|
D|-------12-14-------14---14---------------|
A|-12-14-----------------------------------|
E|-----------------------------------------|

 If not for myself then I will
E|-----------------------------------------|
B|-----------------------------------------|
G|-------------12-14-----------------------|
D|-------12-14-------14---12---------------|
A|-12-14-----------------------------------|
E|-----------------------------------------|

 Free you from that dark future
E|-----------------------------------------|
B|-----------------------------------------|
G|-------------12-14--------12-------------|
D|-------12-14-------14---14---------------|
A|-12-14-----------------------------------|
E|-----------------------------------------|(x2)



In a sea of green I have lost my dreams
Now I have nothing am I really still me?
Through a screen of glass someone from the past
Reaching out to me though I cannot see

Should I even care for the world out there
I want to wake up from this green nightmare

I will keep my dreams an pride
Never giving up the fight, never
If not for myself then I will
Free you from that dark future


(Rhythm)

The pattern is specific in the strum direction and goes as follows:
   Em↑Em↑Em↑  C↓    C↑ C↓   C↑ C↓ C↑ C↓ G↑
   G↑ G↑ G↑   D↓    D↑ D↓   D↑ D↓ D↑ D↓ Em↑


(Example)

       Em    C           G      D
In the begin-ning it was only a dream
        Em       C               G        D
Full of life and pride, still so young in-side


[Violin-to-Guitar]

E|-17--19--20--15-----|-17-15--19--17-15--14---12--|
B|--------------------|----------------------------|
G|--------------------|----------------------------|
D|--------------------|----------------------------|
A|--------------------|----------------------------|
E|--------------------|----------------------------|

************************************

| h  Hammer-on

************************************

            
            
Suggest correction
Creating personal tab
Creating personal tab
You can edit any tab online and save it as your Personal.

You can edit, replace or remove any tab part or add personal notes – all changes will be seen only by you.

Personal tabs can be accessed anytime from any device, even offline.
Learn more »
Give kudos to tab author, rate the tab!
1 2 3 4 5
comments
print report bad tab
guest
You may want to rate the tab now too:
select rating
Wanna post a correction for this tab? Suggest correction