Oops, an error
Loading. Please wait.

December 2 Chapter Vii Tab

929 views 1 this week
no commentswrite comment
1 2 3 4 5
please rate
add to favorites
launch autoscroll
font size
0
reset
how to read this tab
guitar tuner
Tab Pro tools
  • play this tab
  • loop segment
  • change instrument
  • show fretboard
  • metronome
×
Best way to learn
"December 2 Chapter Vii"
Autoscroll
slow
fast
+/-
esc
set tempo
stop
Contributor
Difficulty
novice
Title: December 2 Chapter VII
Artist: Taken By Cars

para sa lahat ng fans ng tbc..mabuhay tayong lahat..
para na rin kay sarah marco-keep it up guys..

my first tab so marami syang mali, pacnxa na..
for comments and suggestions email me at
strummador16@gmail.com or enma_douji28@yahoo.com

Intro:
Gtr 1
E|---------------------------12-12----12---14-14--------|
B|-------------------12-12------------------------------|        8X
G|------------------------------------------------------|
D|------------------------------------------------------|
A|------------------------------------------------------|
E|------------------------------------------------------|

Gtr 2
E|---------------------- x------------------------------|
B|--------5---4--------7---------5---4------------------|
G|----------4---------- 9-----------4-------------------|
D|----------------------9-------------------------------|
A|---------------------- 7------------------------------|
E|---------------------- x------------------------------|

Gtr 2
E|------------------------------------------------------|
B|----------4----4-5 4----------------------------------|
G|----4------4--------4---------------------------------|    4x
D|-------4----------------------------------------------|
A|------------------------------------------------------|
E|------------------------------------------------------|

Gtr 1
E|---------77777---55555---4444---55555--45-------------|
B|---------55555---55555---5555---55555--55-------------|    3x
G|------------------------------------------------------|
D|------------------------------------------------------|
A|------------------------------------------------------|
E|------------------------------------------------------|

Gtr 2
E|---------------------------12---------12--12----------|
B|-------------------12-12-----12-12--------------------|    2x

Gtr 2
E|---------------------------12---------12--12----------|
B|-------------------12-12-----12-12--------------------|   2x

Gtr 1
E|---------77777---55555---4444---55555--444------------|
B|---------55555---55555---5555---55555--555------------|
G|------------------------------------------------------|
D|------------------------------------------------------|
A|------------------------------------------------------|
E|------------------------------------------------------|

Verse 1
Gtr 2
E|---------------------------12---------12--12-----------|
B|-------------------12-12-----12-12---------------------|

E                                                 A
A sinking call, an out of sight hello
              B
From a thousand wailing walls
Gtr 2
E|---------------------------12---------12--12-----------|
B|-------------------12-12-----12-12---------------------|

                 E                       A
It’s like you, oh it’s like you never left
         B
It’s like you never left at all

Chorus 1
A                     B                                         A
I throw your words around like child’s play
B
Listen to what I say
 A                     B                                         A
I throw your words around like child’s play
B
New blues for new day

Verse 2
Gtr 2
E|---------------------------12---------12--12----------|
B|-------------------12-12-----12-12--------------------|
E                                 A
Oh and when I’m gone
                  B
When I’m, when I’m gone
                            E
I want you to wonder
Gtr 2
E|---------------------------12---------12--12----------|
B|-------------------12-12-----12-12--------------------|
                        A
And when I stop
Gtr 2
E|---------------------------12---------12--12----------|
B|-------------------12-12-----12-12--------------------|
                             B
When I, when I stop

I want you to play

Chorus 2
A                    B                                            A
And let the best of you just see right thru me
B
Coz I can’t see

Gtr 1
E|---------77777---55555---4444---55555--45----------------|
B|---------55555---55555---5555---55555--55----------------|    3x
G|---------------------------------------------------------|
D|---------------------------------------------------------|
A|---------------------------------------------------------|
E|---------------------------------------------------------|

And I wasn’t where you were

No I’m never where you are

I’m in my looking glass view

Always almost too close to you

I’m always almost too close to you

Gtr 1
E|----------------7-------7-------7---------------------|
B|-------------------9-------9--------------------------|
G|----------------------9-------9-----------------------|
D|------------------------------------------------------|
A|------------------------------------------------------|
E|------------------------------------------------------|

Gtr 1
E|----------------7-------7-------7----------------------|
B|-------------------9-------9---------9-----------------|
G|----------------------9-------9------------------------|
D|-------------------------------------------------------|
A|-------------------------------------------------------|
E|-------------------------------------------------------|

Gtr 1
E|------------------------------------------------------|
B|-------------10-10-10-10-9-9-5-5-5-5-5-5--------------|    2x
G|------------------------------------------------------|
D|------------------------------------------------------|
A|------------------------------------------------------|
E|------------------------------------------------------|

Gtr 2
E|---------------x----------------------------------------|
B|---------------7----------------------------------------|
G|---------------9----------------------------------------|
D|---------------9----------------------------------------|
A|---------------7----------------------------------------|
E|---------------x----------------------------------------|

Gtr 1
E|----------------7-------7-------7----------------------|
B|-------------------9-------9---------------------------|
G|----------------------9-------9------------------------|
D|-------------------------------------------------------|
A|-------------------------------------------------------|
E|-------------------------------------------------------|

Gtr  2
E|-----------0--------------------------------------------|
B|------------------4-------------------------------------|
G|--------------4-----------------------------------------|
D|--------------------------------------------------------|
A|--------------------------------------------------------|
E|--------------------------------------------------------|

Gtr 1
E|----------------7-------7-------7----------------------|
B|-------------------9-------9---------9-----------------|
G|----------------------9-------9------------------------|
D|-------------------------------------------------------|
A|-------------------------------------------------------|
E|-------------------------------------------------------|

Gtr 1
E|--------------------------------------------------------|
B|-------------10-10-10-10-9-9-5-5-5-5-5-5----------------|   2x
G|--------------------------------------------------------|
D|--------------------------------------------------------|
A|--------------------------------------------------------|
E|--------------------------------------------------------|

Gtr  2
E|--------------------------------------------------------|
B|------------------------7-------------------------------|
G|----------------9---9-------9---------------------------|
D|-------------------9------9-----------------------------|
A|--------------------------------------------------------|
E|--------------------------------------------------------|

Gtr  1
E|------------------777-----------------------------------|
B|---777--5555--------5-7-5-7-5---------------------------|
G|--------------------------------------------------------|
D|--------------------------------------------------------|
A|--------------------------------------------------------|
E|--------------------------------------------------------|

Gtr  1
E|------------------777------------------------------------|
B|---777--5555--------5-7-5-7-7----------------------------|
G|---------------------------------------------------------|
D|---------------------------------------------------------|
A|---------------------------------------------------------|
E|---------------------------------------------------------|

Gtr  1
E|----------------------------------------------------------|
B|----------101010-99---555555--5-7-5-7-7-------------------|
G|----------------------------------------------------------|  2x
D|----------------------------------------------------------|
A|----------------------------------------------------------|
E|----------------------------------------------------------|

Gtr  1
E|------------------777---------------------------------|
B|---777--5555--------5-7-5-7-5-------------------------|
G|------------------------------------------------------|
D|------------------------------------------------------|
A|------------------------------------------------------|
E|------------------------------------------------------|

Gtr  1
E|------------------777--------------------------------|
B|---777--5555--------5-7-5-7-7------------------------|
G|-----------------------------------------------------|
D|-----------------------------------------------------|
A|-----------------------------------------------------|
E|-----------------------------------------------------|


Gtr  1
E|-------------------------------------------------------|
B|----------101010-99---555555--5-7-5-7-7----------------|
G|-------------------------------------------------------|  2x
D|-------------------------------------------------------|
A|-------------------------------------------------------|
E|-------------------------------------------------------|

Gtr 1
E|---------77777---55555---4444---55555--45--------------|
B|---------55555---55555---5555---55555--55--------------|      3x
G|-------------------------------------------------------|
D|-------------------------------------------------------|
A|-------------------------------------------------------|
E|-------------------------------------------------------|
And I wasn’t where you were

And I’m never where you are

I’m in my looking glass view

Always almost too close to you

I’m always almost too close to you

Outro -still working on this part pati na rin yung sa chorus-
comments
We did not receive enough feedback on this tab! Please rate:
print report bad tab
1 2 3 4 5
I want to post or [tab]
guest
You may want to rate the tab now too:
select rating
Please do not post tabs as comments. Select "correction" instead!