Oops, an error
Loading. Please wait.

Close Therapy Tab

902 views 1 this week
no commentswrite comment
1 2 3 4 5
please rate
add to favorites
launch autoscroll
font size
0
reset
how to read this tab
guitar tuner
Autoscroll
slow
fast
+/-
esc
set tempo
stop
Help us to improve Ultimate-Guitar.com Take our survey!
×
Author
Difficulty
Tuning
intermediate
D A D G B E
Close, Therapy
Tabbed by Viktor Ingårda
viktoringarda@hotmail.com
Drop-D tuning

Im a little insecure about the chords and the fill in at the solo.. but this works fine!

G5     = 555xxx
D5     = 000xxx
F5     = 333xxx
Eb5    = 111xxx
Eb5(2) = x68xxx
F5(2)  = x810xxx

  Fig1(vers)               Fig2
e|-----------------------|------|
B|-----------------------|------|
G|-----------------------|------|
D|-8-7-8--7-8-8--7-8-8-7-|-/10~-|
A|-----------------------|------|
D|-----------------------|------|

Intro/vers: Fig1

  All this seeking we try to be someone else
  I accept this now we could try to pretend
  But I don´t want this, no I don´t know if I can

          G5        Eb5          F5 D5
I wanna know who I am, who you are
          G5          Eb5        F5
I wanna know if you care, if you are

Intro/vers:
Fig1

 All this wondering why, are we still holding on
 Keep the faith she said, but it´s already gone  (Fig2)

          G5        Eb5          F5 D5
I wanna know who I am, who you are
          G5          Eb5        F5
I wanna know if you care, if you are

D5               Eb5                   F5           G5
I wish I could take this to me like you with open arms
D5                  Eb5                  F5                G5
They say time will heal the wounds but nothing happens so far

Interlude 1
 G5              Eb5(2)            F5             D5
----------------------------------------------------------------|
----------------------------------------------------------------|
--------------------------------------------------8-------------|
-8-8----8-8-8/10-8--8----8-10/12-8-10--10-8-10-12---12-7-8-10-8-|  X2
-----10---------------10----------------------------------------|
----------------------------------------------------------------|

Interlude 2
 G5                   G5                  F5(2)
----------------------------------------------------------------------|
----------------------------------------------------------------------|
----------------------------------------------------------------------| X2
---8---7------8---7-----8---7-----8---7-----10---8---7----10---8---7--|
-5---5------5---5-----5---5-----5---5-----7----7---7----7----7---7----|
----------------------------------------------------------------------|
 G5                  F5(2)
-----------------------------------------------------------------------|
-----------------------------------------------------------------------|
-----------------------------------------------------------------------|
---8---7-----8---7-----10---8---7----10---8---7--8-10------------------|
-5---5-----5---5-----7----7---7----7----7---7--------------------------|
-----------------------------------------------------------------------|

          G5        Eb5          F5 D5
I wanna know who I am, who you are
          G5          Eb5        F5
I wanna know if you care, if you are

Solo

Gtr1
 G5                Eb5(2)     F5            G5 (End)
--------------------------------------    |----|---|
--------------------------------------    |--------|
-------------------------------------- X5 |--------|
----8-7-8-10-8-7-8---8-7------7-8-10--    |--------|
-10----------------6-----10-8---------    |-10-----|
--------------------------------------    |--------|

Gtr2
(Fill in 3rd round)
--------------------------------------|
--------------------------------------|
----8-7-8-10-8-7-8---8-7------7-8-10--| X2
-10----------------6-----10-8---------|
--------------------------------------|
--------------------------------------|

That's all folks!
Suggest correction
Give kudos to tab author, rate the tab!
1 2 3 4 5
comments
print report bad tab
guest
You may want to rate the tab now too:
select rating
Wanna post a correction for this tab? Suggest correction