Oops, an error
Loading. Please wait.

Give Into Me Tab

version 1
version 1

Whole song

Interactive

16,333 views 9 this week
1 commentread comment
1 2 3 4 5
accurate
x 4
add to favorites
launch autoscroll
font size
0
reset
how to read this tab
guitar tuner
Autoscroll
slow
fast
+/-
esc
set tempo
stop
Help us to improve Ultimate-Guitar.com Take our survey!
×
Author
ivemo 142
Artist : Takida
Title : Give into me (riding high version)
Album : Thorns
Date: 2006-04-23 13.40
Transcribed by Viktor Ivemo
comments/corrections to:
Iv3mo_@hotmail.com


Intro:

First Guitar
|-------------------------------------------------------------|
|---5--4--0-----5--4--0-----5--4--0-----5--4--0----5--4--0----|
|-----------2------------6----------2------------4------------|
|-------------------------------------------------------------|
|-------------------------------------------------------------|
|-------------------------------------------------------------|

Second Guitar
|-------------------------------------9-7---------------------|
|------------10-9---------------------------------------------|
|-------------------------------------------------------------|
|-------------------------------------------------------------|
|-------------------------------------------------------------|
|-------------------------------------------------------------|

Third Guitar (lead guitar)
             A          C#m         A            B
|-------------------------------------------------------------|
|------------2----------5-----------2------------4------------|
|------------2----------6-----------2------------4------------|
|------------2----------6-----------2------------4------------|
|------------0----------4-----------0------------2------------|
|-------------------------------------------------------------|

A                    C#m                A
 I'm falling down on you, where are you from?
                C#m           C#m            B        A
What else can I do? You're so beautiful, how can I go on?
                 C#m                    A
If I loose it all, would you go down on me?
                  C#m      C#m        B          A
And I don't even know, the things you want me to see

B
I'm waiting for you, thinking of you
B
Give into me, I'll make you blue
C#m A      E                    B
    I wanna know if you feel the same
C#m    A                E                B
You're mine, I'm ridin' high like an aeroplane

A                         C#m
I wanna give you what you need
                    A
But I don't dare to ask
              C#m
I got no self-esteem
        B        A
I don't blame my past

B
I'm waiting for you, thinking of you
B
Give into me, I'll make you blue

C#m A       E                    B
    I wanna know if you feel the same
C#m    A                E                B
You're mine, I'm ridin' high like an aeroplane x3

After first time you play like this
|-----------------------------------------------------|
|-----------------------------------------------------|
|-----------------------------------------------------|
|----6---6---6---6---6---6---6---6---4---2--2-2---4---|
|--0---0---4---4---0---0---4---4---2---0---0-0-0-2-2--|
|-----------------------------------------------------|

C#m
Ridin' high,
A
ridin' high,
E
ridin' high,
B
ridin' high, yeah
C#m
Ridin' high,
A
ridin' high,
E            B
ridin' high, yeah
A
Yeah

|---------------------|
|--2---------0--------|
|--2---------1--------|
|--2---------2--------|
|--0---------2--------|
|-------3b---0--------|
Suggest correction
What's this?
You can suggest a correction to this tab. Community and Mods will review your correction and vote to approve or reject it.
comments
print report bad tab
1 comment total.
0 reply
jootly 15 wrote on July 23 2014, 05:45 am

Great job. I think it's perfect

guest
You may want to rate the tab now too:
select rating
Please do not post tabs as comments. Select "correction" instead!