Oops, an error
Loading. Please wait.

Jaded Tab

version 1
version 1

Whole song

Interactive

6,128 views 1 this week
no commentswrite comment
1 2 3 4 5
excellent!
x 1
add to favorites
launch autoscroll
font size
0
reset
how to read this tab
guitar tuner
Tab Pro tools
  • play this tab
  • loop segment
  • change instrument
  • show fretboard
  • metronome
Autoscroll
slow
fast
+/-
esc
set tempo
stop
Contributor
Difficulty
Tuning
intermediate
D A D G B E
------------------------------------------------------------------------------
                       Jaded - Takida
------------------------------------------------------------------------------
Tabbed by: Erik Carlsson
Email: aussiebucky@hotmail.com

I know there's another guitar at the "Nothing is for real"-parts.. But I can't really 
what they play, so just try improvising there.

Tuning: Drop-D (DADGBe)

Chords:
   A# F G D D#
e|----------------|
B|----------------|
G|-3--------------|
D|-3--3-5-0-1-----|
A|-1--3-5-0-1-----|
D|----3-5-0-1-----|

Intro:
I was broken and alone, I wanna rest my bones
The sun is shining now, but still I'm feeling cold...

  A#                  F        D         D#    G
e|------------------------------------------------------------------------|
B|------------------------------------------------------------------------|
G|----------7----------------------7-------8-8----------------------------|
D|-8-8---7h8--8-7h8p7----7h8---7h8---8-7---------7-8-10-8-----------------|
A|--------------------8------5-----------6-----8--------------------------|
D|------------------------------------------------------------------------|

A#               F                     G
I was broken and alone, I wanna rest my bones
                            D#                F
The sun is shining now, but still I'm feeling cold

A#                  F                         G
I had a demon in my head, I don't know what I said
                     D#                F
I'm so sorry for the stories that I've told

G                   D#          F
Nothing is for real, and You know it
G                     D#            F
I'm just gonna let it out, I'm just gonna let it out...

A#                            F                            G
I'm having nightmares all the time, for reasons I can't find
                              D#              F
It's getting darker now, but, I wont close my eyes

G                   D#          F
Nothing is for real, and You know it, you know it
G                     D#            F
I'm just gonna let it out, I'm just gonna let it out...

G D# A# F G D# A# F
        Oh Yeaaaaaah


Guitar 2 during this part:
  G D# A#  F
e|------------|
B|-8--4--11-6-|
G|------------|
D|------------|
A|------------|
D|------------|


G     D#       A#    F       G    D# A# F
Since now, I'm gonna make it alone
G     D#     A#    F        G  D# A# F
Don't try, I wanna be on my own

D#                F
It's brighter now; I will make it on my own


Solo: (A# . F . G . D# F)
e|---------------------------------------------------------------------------|
B|---------------------------------------------------------------------------|
G|----------7-----------10-8-7----7-----7-------8-8--------------------------|
D|-8-8---7h8--8-7h8p7----------10---7h8---8-7---------7-8-10-8---------------|
A|--------------------8-----------------------6-----8------------------------|
D|---------------------------------------------------------------------------|

e|-------------------------------10-10-10-------------------13-13-13-11-10-11|
B|-11-10h11-13-11-10-11-11-10h11----------10-10h11-11-10h11------------------|
G|---------------------------------------------------------------------------|
D|---------------------------------------------------------------------------|
A|---------------------------------------------------------------------------|
D|---------------------------------------------------------------------------|


e|-10----10------------------------------------------------------------------|
B|----13----13-11p10-11-13-11------------------------------------------------|
G|---------------------------------------------------------------------------|
D|---------------------------------------------------------------------------|
A|---------------------------------------------------------------------------|
D|---------------------------------------------------------------------------|


A#               F                     G
I was broken and alone, I wanna rest my bones
                            D#                F
The sun is shining now, but still I'm feeling cold

G D# A# F G D# A# F
        Oh Yeaaaaaah

Guitar 2 during this part:
  G D# A#  F
e|------------|
B|-8--4--11-6-|
G|------------|
D|------------|
A|------------|
D|------------|

G     D#       A#    F       G    D# A# F
Since now, I'm gonna make it alone
G     D#     A#    F        G  D# A# F
Don't try, I wanna be on my own
G     D#       A#    F       G    D# A# F
Since now, I'm gonna make it alone
G     D#     A#    F        G  D# A# F
Don't try, I wanna be on my own
D#                F                     A#
It's brighter now; I will make it on my own
comments
We did not receive enough feedback on this tab! Please rate:
print report bad tab
1 2 3 4 5
I want to post or [tab]
guest
You may want to rate the tab now too:
select rating
Please do not post tabs as comments. Select "correction" instead!