Oops, an error
Loading. Please wait.

Old Tab

674 views 1 this week
no commentswrite comment
1 2 3 4 5
excellent!
x 1
add to favorites
launch autoscroll
font size
0
reset
how to read this tab
guitar tuner
Tab Pro tools
  • play this tab
  • loop segment
  • change instrument
  • show fretboard
  • metronome
Autoscroll
slow
fast
+/-
esc
set tempo
stop
Contributor
Difficulty
Tuning
intermediate
D A D G B E
-------------------------------------------------------------------------------
                             Old - Takida
-------------------------------------------------------------------------------
Tabbed by: Erik Carlsson
Email: aussiebucky@hotmail.com

Tuning: Drop-D (DADGBe)

Fairly easy song to play, just listen to it to get the idea, there's a few things you
really hear unless you listen for them... I couldn't be bothered writing out where there
palm mutes, as I said, listen to the song.... I think this should be about right 
if you have any comments or corrections, please send me an e-mail...

h = Hammer on

Intro:
  G#5              G#5
e|----------------|--------------------|
B|----------------|--------------------|
G|---5-5-4h5---5--|---5-5-4h5---5---5--|
D|-----------3----|-----------3---3----|
A|----------------|--------------------|
D|----------------|--------------------|

Verse:
  G#5                     F5
e|-----------------------|---------------|
B|-----------------------|---------------|
G|---3-------------3-----|---------------|
D|-----6-------6-----6---|---------------|
A|-------6---6---6-----6-|---------------|
D|---------6-------------|---------------|

Are you colder now, are you colder than the water
Is your heart alive, your heart is so much older


Chorus:
C#             D#
  You can't go back
G#                  G#/G     F   (D#)
soon your heart will be on attack
C#  D#
 oh life

Bridge:
  G#5                 G#5
e|---------------------|---------------------|
B|---------------------|---------------------|
G|-------4h5---5---5---|---5-5-4h5---5---5---|
D|-----------3---3---3-|-----------3---3---3-|
A|---------------------|---------------------|
D|---------------------|---------------------|

Verse:
  G#5                     F5
e|-----------------------|---------------|
B|-----------------------|---------------|
G|---3-------------3-----|---------------|
D|-----6-------6-----6---|---------------|
A|-------6---6---6-----6-|---------------|
D|---------6-------------|---------------|

  You're helpless now, you can do nothing at all
  You wanna change, yeah you wanna remember it all

  G#5                         F5
e|---------------------------|----------------------|
B|-----4-------------4-------|----------------------|
G|-5-3---3-3h5---5-3---3-3h5-|----------------------|
D|---------------------------|----------------------|
A|---------------------------|----------------------|
D|---------------------------|----------------------|
    It's darker now, and you think you're all alone

Chorus:
C#             D#
  You can't go back
G#                  G#/G     F   (D#)
soon your heart will be on attack
C#  D#
 oh life
C#             D#
  You can't go back
G#                  G#/G     F   (D#)
soon your heart will be on attack
C#    D#

Solo:
  G#5                  F     D#    F     D#      G#5                F
e|-------------------|-------------------------|------------------|---------|
B|-------------------|-------------------------|------------------|---------|
G|-------------------|-------------------------|------------8-5---|-5---5h8-|
D|-6--8-6-5-6--8-6-5-|---5-6---5-6---5-6---5-6-|-6--8-6-5-6-----8-|---------|
A|-------------------|-6-----4-----6-----4-----|------------------|---------|
D|-------------------|-------------------------|------------------|---------|

  G#5                  F     D#    F     C# C#/C A#
e|-------------------|-----------------------------------------------------|
B|-------------------|-----------------------------------------------------|
G|-------------------|-----------------------------------------------------|
D|-6--8-6-5-6--8-6-5-|---5-6---5-6---5-6-----------------------------------|
A|-------------------|-6-----4-----6-----4-3-1-----------------------------|
D|-------------------|-----------------------------------------------------|

Chorus:
D#   F
Let go
      C#       D#/A#
We'll see you again
D#   F
Oh no
     C#         D#/A#
I'm still your friend
     D#           F
This time you are through
         C#          D#/A#
you have been to the end
D#   F
Let go
      C#       D#/A#
we’ll see you again

Stick:
  D#                            C
e|-----------------------------|------------------------------|
B|-----------------------------|------------------------------|
G|-------3-------------3-------|-------3-------------3--------|
D|---5-3---3-3h5---5-3---3-3h5-|---5-3---3-3h5---5-3---3-3h5--|
A|-----------------------------|-3--3-3-3-3----3--3-3-3-3-----|
D|-1-------------1--1-1-1-1----|------------------------------|
Are we seeking life, are we makers of pain?
I can hear you cry, are you feeling the same?

  G#                        D#
e|-------------------------|-----------------------------|
B|-------------------------|-----------------------------|
G|-------------------------|-------3-------------3-------|
D|---6-5---5-6---6-5---5-6-|---5-3---3-3h5---5-3---3-3h5-|
A|-------8-----------8-----|-----------------------------|
D|-6--6-6-6-6--6--6-6-6-6--|-1--1-1-1-1----1--1-1-1-1----|
I can see it now, are you leaving today?
I can see it now, are you leaving today?

  D#                            C
e|-----------------------------|------------------------------|
B|-----------------------------|------------------------------|
G|-------3-------------3-------|-------3-------------3--------|
D|---5-3---3-3h5---5-3---3-3h5-|---5-3---3-3h5---5-3---3-3h5--|
A|-----------------------------|-3--3-3-3-3----3--3-3-3-3-----|
D|-1-------------1--1-1-1-1----|------------------------------|
Are we seeking life, are we makers of pain?
I can hear you cry, are you feeling the same?

  G#                        D#
e|--------------------|--------------------------------------|
B|--------------------|-------11----------------11-----------|
G|--------------------|-12-10----10-10h12-12-10----10-10h12--|
D|--------------------|--------------------------------------|
A|--------------------|--------------------------------------|
D|--------------------|--------------------------------------|
Don't think of tomorrow, don't think of today
Don't think of tomorrow, don't think of today

  G#                        D#
e|-------------------------|-----------------------------|
B|-------------------------|-----------------------------|
G|-------------------------|-------3-------------3-------|
D|-------------------------|---5-3---3-3h5---5-3---3-3h5-|
A|-------------------------|-----------------------------|
D|-------------------------|-1--1-1-1-1----1--1-1-1-1----|
Don't think of tomorrow, don't think of today

  D#                            D#
e|-----------------------------|-----------------------------|
B|-----------------------------|-----------------------------|
G|-------3-------------3-------|-------3-------------3-------|
D|---5-3---3-3h5---5-3---3-3h5-|---5-3---3-3h5---5-3---3-3h5-|
A|-----------------------------|-----------------------------|
D|-1--1-1-1-1----1--1-1-1-1----|-1--1-1-1-1----1--1-1-1-1----|
(Repeat a few times...)

Any comments.. please e-mail aussiebucky@hotmail.com
comments
We did not receive enough feedback on this tab! Please rate:
print report bad tab
1 2 3 4 5
I want to post or [tab]
guest
You may want to rate the tab now too:
select rating
Please do not post tabs as comments. Select "correction" instead!