Oops, an error
Loading. Please wait.

Point Of View Tab

3,216 views 1 this week
no commentswrite comment
1 2 3 4 5
please rate
add to favorites
launch autoscroll
font size
0
reset
how to read this tab
guitar tuner
Autoscroll
slow
fast
+/-
esc
set tempo
stop
Help us to improve Ultimate-Guitar.com Take our survey!
×
Author
Takida - Point of view
Tabbed by Viktor Ingårda
viktoringarda@hotmail.com

Powerchords:
 F5    G5    A5    C5    F5(2)
------------------------------------------------------------------|
------------------------------------------------------------------|
--------------------5-----10--------------------------------------|
--3-----5-----7-----5-----10--------------------------------------|
--3-----5-----7-----3-----8---------------------------------------|
--1-----3-----5---------------------------------------------------|


Intro/vers
 C               G                AM      F     C
------------------------------------------------------------------|
---0--1--0--1--0----0--1--0--1--0----0--1-----0----0--1--0--1--0--|
----0--0--0--0-------0--0--0--0-------2------2------0--0--0--0----|
--2--2--2--2--2-------0--0--0--0----2--2----3-----2--0--0--0--0---|
-3-----------------2---------------0-------3-----3----------------|
------------------3-----------------------------------------------|


C                             G                              Am
 I know the way you're thinking, you think I'm always drinking
            F             C
You got to find another one
C                         G                              Am
 I know I'm not that sober do you really think I'm colder
               F             C
I know you're looking for someone

G5    F5                A5           G5                F5            G5
  My life, I choose to live another way that's not in your eyes, my life

C5                     G5                             A5
 I'm only getting older and my visions getting nowhere
              F5              G5
I got to change my point of view
C5                       G5                              A5
 I'm no different from you, you like to drink all night too
                   F5             C5
I'm just getting drunker that's all

G5    F5                A5           G5                F5            G5
  My life, I choose to live another way that's not in your eyes, my life

           A5 F5(2) C5  G5      A5 F5(2)  C5   G5     A5 F5(2)
I'm still here,     I know you care     this fear in me
     C5      A5      G5
I'm coming around, sometimes, on the way

Gtr 1
(Intro)
------------------------------------------------------------------|
---0--1--0--1--0----0--1--0--1--0----0--1-----0----0--1--0--1--0--| 2x
----0--0--0--0-------0--0--0--0-------2------2------0--0--0--0----|
--2--2--2--2--2-------0--0--0--0----2--2----3-----2--0--0--0--0---|
-3-----------------2---------------0-------3-----3----------------|
------------------3-----------------------------------------------|

Gtr 2
Interlude
  c         G       AM     F      c
-------------------------------------------|
--------------------4--6p4-----------------| x2
-4/11---9-8-6---4-6--------4--4h6-4--------|
-------------------------------------------|
-------------------------------------------|
-------------------------------------------|

Gtr 1
[A5] [F5] [G5] [A5] [F5] [C5] x2

Gtr2
(Solo)
 A5                              F5              G5
---------------------------------------------------------------|
---------------------------------------------------------------|
-7-8-8-7-8-8-7-8-8-7-8-8-7-8-8-8-7-8-8-7-8-8-8-7----------10-8-|
-------------------------------------------------8-8-8-8-8-----|
---------------------------------------------------------------|
---------------------------------------------------------------|

 A5                              F5                 C5
-------------------------------------------------------------------|
---------------------------------11-11-11-9-9-9-8-8----------------|
-7-8-8-7-8-8-7-8-8-7-8-8-7-8-8-8--------------------10-10-10-10-10-| x2
-------------------------------------------------------------------|
-------------------------------------------------------------------|
-------------------------------------------------------------------|


G5    F5                A5           G5                F5            G5
  My life, I choose to live another way that's not in your eyes, my life

           A5 F5(2) C5  G5      A5 F5(2)  C5   G5     A5 F5(2)
I'm still here,     I know you care     this fear in me
     C5      A5      G5
I'm coming around, sometimes, on the way

Gtr 1 [Intro]
Gtr 2 [Interlude]

C                       G                           Am
 I know my head is achin of all the drinks I've taken
            F           C
I know you wont get along
C                     G                          Am
 I have waited so long for something to come along
         F             C
I won't find it in this town


| C5 | G5 | A5 F5 | C5 | aah.. aah.. repeat to fade

Thats all folks!
Suggest correction
Give kudos to tab author, rate the tab!
1 2 3 4 5
comments
print report bad tab
guest
You may want to rate the tab now too:
select rating
Please do not post tabs as comments. Select "correction" instead!