Oops, an error
Loading. Please wait.

Best Places To Be A Mom tab

version 1
version 1

Whole song

Interactive

5,402 views 1 this week
9 commentsread comments
1 2 3 4 5
x 4
add to favorites
×
Save as Personal and add changes to this tab that will be seen only by you. Learn more ›
×
You can save this tab as Personal to edit and correct it or add notes. All changes will be seen only by you. Learn more »
launch autoscroll
font size
0
reset
how to read this tab
guitar tuner
edit
Autoscroll
slow
fast
+/-
esc
set tempo
stop
Band: Taking Back Sunday
Song: Best Places To Be A Mom
Album: Taking Back Sunday (self titled)
Tabbed By: Matt Florio; myspace.com/mattflorio2
Email: Shempashland@yahoo.com

Hey this is a tab for a song ' Best Places To Be A Mom ' by TBS!
This is one of the new songs release from the reunited Taking Back Sunday lineup. 
Enjoy... I tabbed based on the leaked demo that just came out!

Tuning: Half Step Down



Intro/Verse
Guitar 1
e|---0-0-0-0-0-0-0-0--|--0-0-0-0-0-0-0-0-0000-|
b|--5-5-5-5-4-4-4-4---|-5-5-5-5-4-4-4-4--7777-|
g|--------------------|-----------------------|
d|--------------------|-----------------------|
a|--------------------|-----------------------|
e|--------------------|-----------------------|

John Nolan sometimes plays it in videos like this:
e|------------------|-------------------------------|
b|---0-0-0-0-0-0-0-0|--0-0-0-0-0-0-0-0--0--0--0--0--|
g|--9-9-9-9-8-8-8-8-|-9-9-9-9-8-8-8-8-11-11-11-11---|
d|------------------|-------------------------------|
a|------------------|-------------------------------|
e|------------------|-------------------------------|

Gutiar 2
e|--0~---------0~-0~--------|
b|--0~---------0~-0~-~------|
g|--9~---------9~-9~-9~-9~--|
d|--9~---------9~-9~-9~-9~--|
a|--7~---------7~-6~-7~-6~--|
e|--0~---------0~-----------|
"Though a lot about the morning.."

Pre Chorus
Guitar 1
e|--12-11-----12-11-14~--|
b|-------9-12------------|
g|-----------------------|
d|-----------------------|
a|-----------------------|
e|-----------------------|

Guitar 2
*next eight A chords could 
 possibly be B (x24400) Chords
e|--0-000-0000*0*000-0000---------|
b|--0-000-0000-0-000-0000---------|
g|--2-222-2222-2-222-2222---------|
d|--2-222-2222-2-222-2222---------|
a|--0-000-0000-0-000-0000---------|
e|--------------------------------|

Chorus
Guitar 1 
(doesnt seem to be a real lead part so try this)
*these chords are also in the verse
e|-*0--*0---0---0---0--|
b|--0---0---0---0---0--|
g|--1---1---6---4---2--|
d|--2---1---6---4---2--|
a|--2---2---4---2---0--|
e|-*0--*0--------------|

Guitar 2
e|--0---0---0---0---0--|
b|--0---0---0---0---0--|
g|--9---9---6---4---2--|
d|--9---9---6---4---2--|
a|--7---6---4---2---0--|
e|--0---0--------------|
"Am I just like..."

Verse

Guitar 2 Palm Mutes the chords this time

Breakdown         
Both Guitars 
                  end on
e|----------------|-----|
b|----------------|-----|
g|--2--4-----2----|-----|
d|--2--4--6--2--4-|--2~-|
a|--0--2--6--0--4-|--2~-|
e|--------4-----2-|--0~-|

Bridge
Guitar 1
e|-----12----12----12----12----11----11----14----14--|
b|-1212--1212--1212--1212--1212--1212--1212--1212----|
g|---------------------------------------------------|
d|---------------------------------------------------|
a|---------------------------------------------------|
e|---------------------------------------------------|

Guitar 2
e|--0---0---0---0---0--000000000000--|
b|-5-5-4-4-5-5-4-4-5-5-555544447777--|
g|-----------------------------------|
d|-----------------------------------|
a|-----------------------------------|
e|-----------------------------------|

Chorus 

Breakdown as Outro

            
            
Suggest correction
Creating personal tab
Creating personal tab
You can edit any tab online and save it as your Personal.

You can edit, replace or remove any tab part or add personal notes – all changes will be seen only by you.

Personal tabs can be accessed anytime from any device, even offline.
Learn more »
comments
print report bad tab
9 comments total. Showing first comments.
-2 reply
r-bizzle182 278 Nov 22, 2010 01:59 PM

Your tab is okay.
Chords for the chorus:

Eb|------------------------------------|
Bb|------------------------------------|
Gb|------------------------------------|
Db|-2-----6-----11----9----7-----------|
Ab|-2-x16-6-x16-11-x8-9-x8-7-x16-------|
Eb|-0-----4------9----7----5-----------|

-2 reply
mattplayscheap 2,336 Nov 24, 2010 05:14 AM

http://www.youtube.com/watch?v=JVPz9HzyjD4&feature=related

Watch that video, watch the chorus part and see how the 3rd guitar and the bass player plays it.

the Chords you used arent any different from mine.
basically:
022xxx isnt different from 022100
466xxx is wrong, they dont play that chord in that part
91111xx is the same thing as x46600
799xxx is the same thing as x244xx
577xxx is the same thing as x02200

0 reply
r-bizzle182 278 Nov 26, 2010 04:25 PM

I'm not going off the video, I'm going off the actual MP3 that they released of the song and using my ear, not my eyes.

guest
You may want to rate the tab now too:
select rating
Wanna post a correction for this tab? Suggest correction