Oops, an error
Loading. Please wait.

Best Places To Be A Mom tab

version 2
version 2

Whole song

Interactive

1,985 views 3 this week
no commentswrite comment
1 2 3 4 5
1 last vote to show rating
add to favorites
×
Save as Personal and add changes to this tab that will be seen only by you. Learn more ›
×
You can save this tab as Personal to edit and correct it or add notes. All changes will be seen only by you. Learn more »
launch autoscroll
font size
0
reset
how to read this tab
guitar tuner
edit
Autoscroll
slow
fast
+/-
esc
set tempo
stop
Best Places To Be A Mom
Taking Back Sunday
Taking Back Sunday

Tabbed by Lec Segundo

Tuning: Half Step Down (Eb Ab Db Gb Bb eb)

Legend:

~ - Let Ring
. - Palm Mute
\ - Slide Upwards

_____________________________________________________________

VERSE

        Rhythm

                eb|--0~----------------|
                Bb|--0~----------------|
                Gb|--9~----------------|    2x
                Db|--9~----------------|
                Ab|--7~----------------|
                Eb|--------------------|
                

        Lead    

                eb|---0-0-0-0-0-0-0-0-0-0-0-0-0-0-0-0--|
                Bb|--5-5-5-5-4-4-4-4-5-5-5-5-4-4-4-4---|
                Gb|------------------------------------|    4x
                Db|------------------------------------|
                Ab|------------------------------------|
                Eb|------------------------------------|

REFRAIN

        Rhythm

                eb|-----------------------------------|
                Bb|-----------------------------------|
                Gb|-----------------------------------|
                Db|--7-7-7-7-7-7-7-7-9-9-9-9-9-9-9-9--|
                Ab|--7-7-7-7-7-7-7-7-9-9-9-9-9-9-9-9--|
                Eb|--5-5-5-5-5-5-5-5-7-7-7-7-7-7-7-7--|
                     . . . . . . . . . . . . . . . .

        Lead
                
                eb|---0-0-0-0-0-0-0-0-0-0-0-0-0-0-0-0--0~-|
                Bb|--5-5-5-5-5-5-5-5-5-5-5-5-5-5-5-5---5~-|
                Gb|---------------------------------------|
                Db|---------------------------------------|
                Ab|---------------------------------------|
                Eb|---------------------------------------|

CHORUS

        Rhythm

                eb|------------------------------------|
                Bb|------------------------------------|
                Gb|--9------9------6-----4-----2-------|    2x
                Db|--9-x16--9-x16--6-x8--4-x8--2-x16---|
                Ab|--7------6------4-----2-----0-------|
                Eb|------------------------------------|


        Lead

                eb|--0------0------0-----0-----0-------|    2x
                Bb|--0-x16--0-x16--0-x8--0-x8--0-x16---|
                Gb|--9------9------6-----4-----2-------|
                Db|------------------------------------|
                Ab|------------------------------------|
                Eb|------------------------------------|

INTERLUDE

        Rhythm

                eb|---0-0-0-0-0-0-0-0-----0-0-0-0-0-0-0-0--|
                Bb|--5-5-5-5-5-5-5-5-----4-4-4-4-4-4-4-4---|
                Gb|----------------------------------------|    2x
                Db|----------------------------------------|
                Ab|----------------------------------------|
                Eb|----------------------------------------|


        Lead

                eb|---0-0-0-0-0-0-0-0-----0-0-0-0-0-0-0-0--|
                Bb|--5-5-5-5-5-5-5-5-----4-4-4-4-4-4-4-4---|
                Gb|----------------------------------------|
                Db|----------------------------------------|
                Ab|----------------------------------------|
                Eb|----------------------------------------|
        
                eb|---0-0-0-0-0-0-0-0-----0-0-0-0--0--0--0--0--|
                Bb|--9-9-9-9-9-9-9-9-----7-7-7-7-12-12-12-12---|
                Gb|--------------------------------------------|
                Db|--------------------------------------------|
                Ab|--------------------------------------------|
                Eb|--------------------------------------------|

VERSE

        Rhythm

                eb|-------------------|
                Bb|-------------------|
                Gb|--9-------9--------|    4x
                Db|--9-x16---9--x16---|
                Ab|--7-------6--------|
                Eb|-------------------|
                     .       .
                     
        Lead

                eb|---0-0-0-0-0-0-0-0-----0-0-0-0-0-0-0-0--|
                Bb|--5-5-5-5-5-5-5-5-----4-4-4-4-4-4-4-4---|
                Gb|----------------------------------------|    4x
                Db|----------------------------------------|
                Ab|----------------------------------------|
                Eb|----------------------------------------|

REFRAIN

        Rhythm

                eb|-----------------|
                Bb|-----------------|
                Gb|-----------------|
                Db|--7~-------------|
                Ab|--7~-------------|
                Eb|--5~-------------|

        Lead (w/ Effects)

                eb|--0-0-0-0-0-0-0-0~--|
                Bb|--5-5-5-5-5-5-5-5~--|
                Gb|--------------------|
                Db|--------------------|
                Ab|--------------------|
                Eb|--------------------|

CHORUS

        Rhythm

                eb|------------------------------------|
                Bb|------------------------------------|
                Gb|--9------9------6-----4-----2-------|    3x
                Db|--9-x16--9-x16--6-x8--4-x8--2-x16---|
                Ab|--7------6------4-----2-----0-------|
                Eb|------------------------------------|

                eb|-------------------------------|
                Bb|-------------------------------|
                Gb|--9------9------6-----4--------|
                Db|--9-x16--9-x16--6-x8--4-x8-----|
                Ab|--7------6------4-----2--------|
                Eb|-------------------------------|

        Lead

                eb|--0------0------0-----0-----0-------|
                Bb|--0-x16--0-x16--0-x8--0-x8--0-x16---|
                Gb|--9------9------6-----4-----2-------|    3x
                Db|------------------------------------|
                Ab|------------------------------------|
                Eb|------------------------------------|

                eb|--0------0------0-----0----------|
                Bb|--0-x16--0-x16--0-x8--0-x8-------|
                Gb|--9------9------6-----4----------|
                Db|---------------------------------|
                Ab|---------------------------------|
                Eb|---------------------------------|

ADLIB

        Both Guitars

                eb|----------------|
                Bb|----------------|
                Gb|----------------|    3x
                Db|--7-9-6-7-4~----|
                Ab|--7-9-6-7-4~----|
                Eb|--5-7-4-5-2~----|

        Rhythm

                eb|--------|
                Bb|--------|
                Gb|--------|    
                Db|--2~----|
                Ab|--2~----|
                Eb|--0~----|

        Lead

                eb|-------|
                Bb|-------|
                Gb|-------|     
                Db|--7----|
                Ab|--7----|
                Eb|--5----|

BREAKDOWN

        Rhythm

                eb|----------------------------------------|
                Bb|----------------------------------------|
                Gb|--IDLE----------------------------------|    4 counts
                Db|----------------------------------------|
                Ab|----------------------------------------|
                Eb|----------------------------------------|

                eb|--0-0-0-0-0-0-0-0---0-0-0-0-0-0-0-0---|
                Bb|---5-5-5-5-5-5-5-5---4-4-4-4-4-4-4-4--|
                Gb|--------------------------------------|    8x
                Db|--------------------------------------|
                Ab|--------------------------------------|
                Eb|--------------------------------------|

        Lead    (Slightly Increasing Volume)
        
                eb|-------12-------12-------12-------12--|\
                Bb|-12-12----12-12----12-12----12-12-----| \
                Gb|--------------------------------------|  \
                Db|--------------------------------------|   \
                Ab|--------------------------------------|    \
                Eb|--------------------------------------|     \
                                                                16x
                eb|-------11-------11-------14-------14--|     /
                Bb|-12-12----12-12----12-12----12-12-----|    /
                Gb|--------------------------------------|   /  
                Db|--------------------------------------|  /
                Ab|--------------------------------------| /
                Eb|--------------------------------------|/

LAST CHORUS

        Rhythm

                eb|------------------------------------|
                Bb|------------------------------------|
                Gb|--9------9------6-----4-----2-------|    3x
                Db|--9-x16--9-x16--6-x8--4-x8--2-x16---|
                Ab|--7------6------4-----2-----0-------|
                Eb|------------------------------------|

                eb|-------------------------------|
                Bb|-------------------------------|
                Gb|--9------9------6-----4--------|
                Db|--9-x16--9-x16--6-x8--4-x8-----|
                Ab|--7------6------4-----2--------|
                Eb|-------------------------------|

        Lead

                eb|--0------0------0-----0-----0-------|
                Bb|--0-x16--0-x16--0-x8--0-x8--0-x16---|
                Gb|--9------9------6-----4-----2-------|    2x
                Db|------------------------------------|
                Ab|------------------------------------|
                Eb|------------------------------------|

                eb|-17-16---------17-16------------------17-16--------15b-|
                Bb|-------14-17~--------14-17~--17-14-17-------17-12------|
                Gb|-------------------------------------------------------|     
                Db|-------------------------------------------------------|
                Ab|-------------------------------------------------------|
                Eb|-------------------------------------------------------|

                eb|-17-16---------17-16------------------17-16----19~---|
                Bb|-------14-17~--------14-17~--17-14-17-------17-------|
                Gb|-----------------------------------------------------|       
                Db|-----------------------------------------------------|
                Ab|-----------------------------------------------------|
                Eb|-----------------------------------------------------|

OUTRO

        Rhythm

                eb|-----------------|
                Bb|-----------------|
                Gb|-----------------|   
                Db|--7-9-6-7-4--2~--|
                Ab|--7-9-6-7-4--2~--|
                Eb|--5-7-4-5-2--0~--|

        Lead                

                eb|--------19\--0~--|
                Bb|-------------0~--|
                Gb|-------------9~--|   
                Db|-----------------|
                Ab|-----------------|
                Eb|-----------------|

END

Please Rate!,... :o

            
            
Suggest correction
Creating personal tab
Creating personal tab
You can edit any tab online and save it as your Personal.

You can edit, replace or remove any tab part or add personal notes – all changes will be seen only by you.

Personal tabs can be accessed anytime from any device, even offline.
Learn more »
Give kudos to tab author, rate the tab!
1 2 3 4 5
comments
print report bad tab
guest
You may want to rate the tab now too:
select rating
Wanna post a correction for this tab? Suggest correction