Oops, an error
Loading. Please wait.

Cute Without The E Bass

version 1
version 1
12,527 views 3 this week
4 commentsread comments
1 2 3 4 5
x 8
add to favorites
launch autoscroll
font size
0
reset
guitar tuner
Autoscroll
slow
fast
+/-
esc
set tempo
stop
Band: Taking Back Sunday
Song: Cute Without the 'E' (Cut From the Team)
Tuning: Standard (EADG)


VERSE:
G|---------------------------------------------------------------------------|
D|---------------------------------------------------------------------------|
A|-4-4-4-4-4-4-4-4--0-0-0-0-0-0-0-0--2-2-2-2-2-2-2-2-2-2-2--6-6-6-6----------|
E|---------------------------------------------------------------------------|

CHORUS: 
G|---------------------------------------------------------------------------|
D|-----------------------4-------4--------------------------2-------2--------|
A|-4-4-4-4-4/6-7--0--2-2---2-2-2---2/7-7-7-7-7-7/9\7--0-0-0--0-0-0-----------|
E|---------------------------------------------------------------------------|

POST-CHROUS:
G|---------------------------------------------------------------------------|
D|---------------------------------------------------------------------------|
A|-4-4-4-4-4-4--2-2-2-2-2-2/7-7-7-7-7/9\7--0-0-0-0-0-0-0-0-------------------|
E|---------------------------------------------------------------------------|

Climax/Ending Pattern (Strumming Varies):
G|---------------------------------------------------------------------------|
D|---------------------------------------------------------------------------|
A|-4--0--2-------------------------------------------------------------------|
E|---------------------------------------------------------------------------|


i have yet to see TBS live, and there are obviously some alternative ways to play
this song, so if you've seen them and they play this differently e-mail me at
m_bazan@fastmail.fm. thanks.
Suggest correction
comments
print report bad tab
4 comments total. Showing first comments.
0 reply
Zero_Mechanism 10 Feb 16, 2003 07:00 PM

In mid-chorus, the part where you slide from 7/9\7, can be made easier and more correct if you play it this way:

G|------------------------------------|
D|-2-2-2-4-4-4-2------2-------2-------|
A|----------------0-0---0-0-0---------|
E|------------------------------------|

Also, i'm pretty sure this is the way Shaun plays it live. Oh, and this goes for the Post-chorus part, too.

0 reply
kornflipsk8er 130 Jul 30, 2006 01:02 PM

i hate this band so much but my band insists on doing this cover.good thing this song is so easy.i don't have to spend much time going over it.

0 reply
thefallofcraig 62 Oct 13, 2008 01:37 PM

alright
in the verse you can do it that way
but i find it easier to do it like

A|-4-4-4-4-4-4-4-4--0-0-0-0-0-0-0-0------------------6-6-6-6--
E|-----------------------------------7-7-7-7-7-7-7-7--------------------------------

guest
Wanna post a correction for this tab? Suggest correction