Oops, an error
Loading. Please wait.

Cute Without The E Tab

version 1
version 1
121,446 views 12 this week
17 commentsread comments
1 2 3 4 5
x 22
add to favorites
launch autoscroll
font size
0
reset
how to read this tab
guitar tuner
×
Best way to learn
"Cute Without The E"
Autoscroll
slow
fast
+/-
esc
set tempo
stop
Author
[Intro]
(With Chorus Effect)
e|------------------|
B|------------------|
G|-4~~~4~~~4~~~4~~~-|
D|-2~~~2~~~2~~~2~~~-|
A|-4~~~0~~~2~~~6~~~-|
E|------------------|

[Verse]
(Rhythm)
e|------------------------------------|
B|------------------------------------|
G|------------------------------------|
D|-66666666----------4444444444444444-|
A|-44444444-77777777-2222222222222222-|
E|----------55555555------------------|
   ******** ******** ****************

[Verse]
(Lead)
e|------------------------------------------|
B|---4-4----4-4-4----4-4-4------------------|
G|----------------------------------1-------|
D|--------------------------------2---2---2-|
A|---------------------------4--4--4----4---|
E|------------------------------------------|
 * *** * * *

[Chorus]
(Both Guitars)
e|----------------------------|
B|----------------------------|
G|-66666666----------99999999-|
D|-66666666-99999999-99999999-|
A|-44444444-99999999-77777777-|
E|----------77777777----------|

 [Interlude]    (Rhythm)     (Lead)
e|------------|-5^------|-----4------4-5—4h5p4-|
B|------------|------5^-|---5------5-----------|
G|-6-----9----|---------|-4------4-------------|
D|-6—-9—-9—-7-|---------|----------------------|
A|-4—-9—-7--7-|---------|----------------------|
E|----7-----5-|---------|----------------------|

[Bridge]
(Rhythm)            (Lead)
e|----------------|-------------|
B|----------------|-------------|
G|-6----2----4~~--|-2-1---2-1---|
D|-6----2----4~~--|-----2-----2-|
A|-4----0----2~~--|-------------|
E|----------------|-------------|

[Outro]
(Both guitars)
e|------------------------------------|
B|------------------------------------|
G|-66666666-22222222-4444444444444444-|
D|-66666666-22222222-4444444444444444-|
A|-44444444-00000000-2222222222222222-|
E|------------------------------------|

[Ending]
e|--------|
B|--------|
G|-6-2-4~~|
D|-6-2-4~~|
A|-4-0-2~~|
E|--------|


************************************

| ~  Vibrato
| h  Hammer-on
| p  Pull-off

************************************
Suggest correction
comments
print report bad tab
17 comments total. Showing first comments.
0 reply
angel33 10 Oct 14, 2003 08:00 PM

The 3rd chord sounds too close the the 2nd chord, if you change the progression to the following tab it sounds 100% correct

|------------------|
|-0---0---0---0----|Intro
|-4---4---4---4----|
|-2---2---4---1----| x 2
|-4---0---2---2----|
|------------------|

0 reply
NascarJunkie05 10 Oct 18, 2003 08:00 PM

This might not make a difference to you guys.. but i like using this for the intro... same thing basically...

|------------------|
|------------------|
|-4---2---4---4----|
|-2---2---4---1----|
|-4---0---2---2----|
|------------------|

0 reply
Saucy112 70 Nov 25, 2003 07:00 PM

Chorus
Both Guitars
|-------------------------------------|
|-------------------------------------|
|-66666666----------99999999----------|
|-66666666-99999999-99999999-77777777-|
|-44444444-99999999-77777777-77777777-|
|----------77777777----------55555555-|

guest
You may want to rate the tab now too:
select rating
Wanna post a correction for this tab? Suggest correction