Oops, an error
Loading. Please wait.

Cute Without The E Bass

version 2
version 2
14,684 views 6 this week
12 commentsread comments
1 2 3 4 5
x 20
add to favorites
launch autoscroll
font size
0
reset
guitar tuner
×
Best way to learn
"Cute Without The E"
Autoscroll
slow
fast
+/-
esc
set tempo
stop
Verse
G----------------------------------|
D----------------------------------|
A-4444444400000000--------66666666-|
E-----------------77777777---------|

Chorus
G---------------------------------|
D-----------------2-2-2-2---------|
A-4-4-4-4-2-2-2-2---------0-0-0-0-|
E---------------------------------|

Little Bass Solo Thing
G--------------------------------|
D-----------------222442---------|
A-444-4-4-222-2-2--------000-0-0-|
E--------------------------------|

this is all you'll need. if you find something wrong, bend over and
stick your head as far into your ass as you can. then e-mail me if
you still think theres a problem.
Suggest correction
comments
print report bad tab
12 comments total. Showing first comments.
0 reply
same_diff 10 Aug 26, 2005 08:00 PM

I'm having trouble with my timing on this song, any hints on the timing of the verse? is that all one line, or is it split up over 4 lines? :S

+1 reply
slickrick61 10 Nov 08, 2006 11:29 AM

Hey my head is up my ass right now and i still think there is a problem. J/K. I like what u posted good job!

0 reply
paramore_fans 63,603 Nov 16, 2006 09:57 PM

the bridge must be like this

G|---------------------------------
D|-----2-----------222242------2---
A|-4444-4--222222----------0000--0-
E|---------------------------------

repeat this many times while singing "Hoping with the lines clever napkins..."

guest
You may want to rate the tab now too:
select rating
Wanna post a correction for this tab? Suggest correction