Oops, an error
Loading. Please wait.

Death Wolf Tab

76 views 12 this week
no commentswrite comment
1 2 3 4 5
1 last vote to show rating
add to favorites
launch autoscroll
font size
0
reset
how to read this tab
guitar tuner
Autoscroll
slow
fast
+/-
esc
set tempo
stop
Help us to improve Ultimate-Guitar.com Take our survey!
×
Author
[verse]

E|-----------------------------------------|
B|-----------------------------------------|
G|-----------------------------------------|
D|-----------------------------------------|
A|--------5--------5-----------5--------5--|
E|--3--3--------3--------3--3--------3-----|


[verse 2nd part]

E|-----------------------------------------------------------------------------|
B|-----------------------------------------------------------------------------|
G|-----------------------------------------------------------------------------|  x2
D|--12--14--12--14--12--14/16--12----------12------12------12--14--12----------|
A|---------------------------------14--14------14------14--------------14--12--|
E|-----------------------------------------------------------------------------|




E|----------------------------------------------------|
B|----------------------------------------------------|
G|--7--7--7--14--14--14--9--9--9--9b10r9-----7-----7--| 
D|--5--5--5--12--12--12--7--7--7--7----------7-----9--|
A|----------------------------------------------------|
E|----------------------------------------------------|

E|--------------|
B|--------------|
G|--------------|  all x3
D|--7-----9-----|
A|--7-----9-----|
E|--5-----7-----|


[verse]

1st guit:

E|-----------------------------------------|
B|-----------------------------------------|
G|-----------------------------------------|
D|-----------------------------------------|
A|--------5--------5-----------5--------5--|
E|--3--3--------3--------3--3--------3-----|

2nd guit:

E|-----------------------------------------|
B|-----------------------------------------|
G|--------7--------7-----------7--------7--|
D|--9--9--------9--------9--9--------9-----|
A|-----------------------------------------|
E|-----------------------------------------|


[verse 2nd part]

E|-----------------------------------------------------------------------------|
B|-----------------------------------------------------------------------------|
G|-----------------------------------------------------------------------------| x2
D|--12--14--12--14--12--14/16--12----------12------12------12--14--12----------|
A|---------------------------------14--14------14------14--------------14--12--|
E|-----------------------------------------------------------------------------|


[interlude]

some piano or xylophone :O



E|----------------------------------------------------|
B|----------------------------------------------------|
G|--7--7--7--14--14--14--9--9--9--9b10r9-----7-----7--|
D|--5--5--5--12--12--12--7--7--7--7----------7-----9--|
A|----------------------------------------------------|
E|----------------------------------------------------|

E|--------------|
B|--------------|
G|--------------|  all x3
D|--7-----9-----|
A|--7-----9-----|
E|--5-----7-----|



[bridge]

E|-------------------------------------------------------------------------------------|
B|-------------------------------------------------------------------------------------|
G|-------------------------------------------------------------------------------------|
D|-------------------------------------------------------------------------------------|
A|-------------------------------------------------------------------------------------|
E|--7--999-----7--999----7--999-----7--999----3--555-----3--555-----3--555-----3--555--|





E|----------------------------------------------------|
B|----------------------------------------------------|
G|--7--7--7--14--14--14--9--9--9--9b10r9-----7-----7--|
D|--5--5--5--12--12--12--7--7--7--7----------7-----9--|
A|----------------------------------------------------|
E|----------------------------------------------------|

E|--------------|
B|--------------|
G|--------------|  all x3
D|--7-----9-----|
A|--7-----9-----|
E|--5-----7-----|



b = bend
r = release
/ = slide up





Suggest correction
Give kudos to tab author, rate the tab!
1 2 3 4 5
comments
print report bad tab
guest
You may want to rate the tab now too:
select rating
Wanna post a correction for this tab? Suggest correction