Oops, an error
Loading. Please wait.

Divine Intervention tab

version 2
version 2

Whole song

Interactive

6,487 views 1 this week
4 commentsread comments
1 2 3 4 5
x 7
add to favorites
×
Save as Personal and add changes to this tab that will be seen only by you. Learn more ›
×
You can save this tab as Personal to edit and correct it or add notes. All changes will be seen only by you. Learn more »
launch autoscroll
font size
0
reset
how to read this tab
guitar tuner
edit
Autoscroll
slow
fast
+/-
esc
set tempo
stop
Author
This is meant to be down tuned slightly but to save the effort I worked it out with 
tuning which sounds just as good.


You can work out the strumming; I’ve just marked where the chord changes in relation to 
lyrics.


Intro/verse:

 Despondent, distracted, you’re vicious and romantic

e |-----------------------------------------------------|
B |-----------------------------------------------------|
G |-----------------------------------------------------|
D |--6------------8--------------5-------------6--------|
A |--6------------8--------------6-------------6--------|
E |--4------------6--------------3-------------4--------|

Repeats for each line:
These are a few of my favourite things.
All of those flavours and this is what you choose:
Past the blues, past the blues, And on to something new


Chorus:


     Something real… and make it timeless

e |--------------------------------------------|
B |--------------------------------------------|
G |--------------------------------------------|
D |-------------11-----------------8-----------|
A |-------------11-----------------8-----------|
E |-------------9------------------6-----------|

  An act of god and nothing else will be accepted

e |--------------------------------------------|
B |--------------------------------------------|
G |--------------------------------------------|
D |----------6---------------5--------------3--|
A |----------6---------------6--------------3--|
E |----------4---------------3--------------1--|

So if your calling me out… then count me out

e |--------------------------------------------|
B |--------------------------------------------|
G |--------------------------------------------|
D |---------------------6665--------------6----|
A |---------------------6666--------------6----|
E |---------------------4443--------------4----|
                               (pause)

This is really on a xylophone or something but I tabbed it anyway

e |-----------------------------------------|
B |--------8-9-------8-9-11-----------------|
G |-------------5-8-----------6-(5)---------|
D |-----------------------------------------| x2
A |-----------------------------------------|
E |-----------------------------------------|


2nd verse

Yeah, we're stubborn and melodramatic, A real class act.
You see, I know a few of your favourite things.
Five in the morning and all comes out pouring, Love
out the same way in.

Chorus x2

Then he starts humming... that’s the same chords as verses

I’ve never tabbed before so I might be doing this really wrong and I’d appreciate 
and ratings etc.

            
            
Suggest correction
Creating personal tab
Creating personal tab
You can edit any tab online and save it as your Personal.

You can edit, replace or remove any tab part or add personal notes – all changes will be seen only by you.

Personal tabs can be accessed anytime from any device, even offline.
Learn more »
comments
print report bad tab
4 comments total. Showing first comments.
0 reply
z3r0element07 602 Jun 02, 2006 09:15 AM

Good tab. And your xylophone part, it should be an octave higher.

0 reply
nottooshabby 68 Jul 20, 2006 09:31 AM

Good tab, but it's supposed to be tuned down a halfstep to Eb (flat), so basically, you take everything you wrote, and change the numbers to one digit higher (so the 8's will be 9's, 7's will be 8's, etc etc) and the letters on the side (just put "b"s next to them, like Eb, Ab, etc.)
Example: The Verse would look like:
Intro/verse:

Despondent, distracted, you?re vicious and romantic

e |-----------------------------------------------------|
B |-----------------------------------------------------|
G |-----------------------------------------------------|
D |--7------------9--------------6-------------7--------|
A |--7------------9--------------7-------------7--------|
E |--5------------7--------------4-------------5--------|

It's sort of hard to play on a regular acoutic guitar since its pitch is so high, but here's the xylophone (actually, piano with xylophone effect) part.
eb|----16-17~--------16-17-19---------------|
Bb|-----------14-17~----------15-14---------|
Gb|-----------------------------------------|
Db|-----------------------------------------| x2
Ab|-----------------------------------------|
Eb|-----------------------------------------|

Either way, it all works, that's just the way he plays it.
-Philly F.

0 reply
nottooshabby 68 Jul 20, 2006 09:33 AM

Sorry, I forgot something

it's supposed to be
eb
Bb for the verse example,
Gb to signify it's a
Db half step down/flat.
Ab
Eb

guest
You may want to rate the tab now too:
select rating
Wanna post a correction for this tab? Suggest correction