Oops, an error
Loading. Please wait.

Error Operator Acoustic tab

version 5
version 5
866 views 1 this week
no commentswrite comment
1 2 3 4 5
x 3
add to favorites
×
Save as Personal and add changes to this tab that will be seen only by you. Learn more ›
×
You can save this tab as Personal to edit and correct it or add notes. All changes will be seen only by you. Learn more »
launch autoscroll
font size
0
reset
how to read this tab
guitar tuner
edit
Autoscroll
slow
fast
+/-
esc
set tempo
stop
Error Operator (Acoustic)
Taking Back Sunday

Tabbed By Lec Segundo

Tuning: Half-Step Down (Eb Ab Db Gb Bb eb)

Legend:

. - Palm Mute
~ - Let Ring
_____________________________________________________________

INTRO

        Rhythm

                eb|-----------------------------------|
                Bb|-----------------------------------|
                Gb|---idle----------------------------|
                Db|-----------------------------------|
                Ab|-----------------------------------|
                Eb|-----------------------------------|

                eb|-----------------------------------|
                Bb|-----------------------------------|
                Gb|-----------------------------------|
                Db|-----------------------------------|
                Ab|-----------------------------------|
                Eb|-0-0-0-0-0-0-0-0-0-0-0-0-0-0-0-0-0-|
                    . . . . . . . . . . . . . . . . .

                eb|---------------------------------|
                Bb|---------------------------------|
                Gb|--9---9---9---9---9---9---9---9--|
                Db|--x---x---x---x---x---x---x---x--|
                Ab|--7---7---7---7---7---7---7---7--|
                Eb|---------------------------------|

                eb|-------------------------------|
                Bb|-------------------------------|
                Gb|--9---9---9---9---9-9-9-9-9----|
                Db|--x---x---x---x---x-x-x-x-x----|
                Ab|--7---7---7---7---7-7-7-7-7----|
                Eb|-------------------------------|

        Lead

                eb|-----------------------------------|
                Bb|-----------------------------------|
                Gb|---idle----------------------------|
                Db|-----------------------------------|
                Ab|-----------------------------------|
                Eb|-----------------------------------|

                eb|-----------------------------------|
                Bb|-----------------------------------|
                Gb|---idle----------------------------|
                Db|-----------------------------------|
                Ab|-----------------------------------|
                Eb|-----------------------------------|

                eb|---------------------------------------|
                Bb|---------------------------------------|
                Gb|--12--12--12--12--12--12--12-11-11-11--|
                Db|---x---x---x---x---x---x--x--x--x--x---|
                Ab|--10--10--10--10--10--10--10-9--9--9---|
                Eb|---------------------------------------|

                eb|---------------------------------------|
                Bb|---------------------------------------|
                Gb|--12--12--12--12--12-12-12-12-12-------|
                Db|---x---x---x---x---x--x-x--x--x--------|
                Ab|--10--10--10--10--10-10-10-10-10-------|
                Eb|---------------------------------------|

VERSE

        Rhythm

                eb|-----------------------------------|
                Bb|-----------------------------------|
                Gb|-------4-4-4-4-4-------7-7-7-7-7---|         4x
                Db|-2-2-2-4-4-4-4-4-5-5-5-7-7-7-7-7---|
                Ab|-2-2-2-2-2-2-2-2-5-5-5-5-5-5-5-5---|
                Eb|-0-0-0-----------3-3-3-------------|

        Lead

                eb|-----------------------------------|
                Bb|-----------------------------------|
                Gb|---idle----------------------------|         2x
                Db|-----------------------------------|
                Ab|-----------------------------------|
                Eb|-----------------------------------|

                eb|---------------------------------------|
                Bb|---------------------------------------|
                Gb|--12--12--12--12--12--12--12-11-11-11--|
                Db|---x---x---x---x---x---x--x--x--x--x---|
                Ab|--10--10--10--10--10--10--10-9--9--9---|
                Eb|---------------------------------------|

                eb|---------------------------------------|
                Bb|---------------------------------------|
                Gb|--12--12--12--12--12-12-12-12-12-------|
                Db|---x---x---x---x---x--x-x--x--x--------|
                Ab|--10--10--10--10--10-10-10-10-10-------|
                Eb|---------------------------------------|

CHORUS

        Rhythm

                eb|-----------------------------------|
                Bb|-----------------------------------|
                Gb|--5-----------7--------------------|         2x
                Db|--5-x8--5-----7-x16----------------|
                Ab|--3-----5-x8--5--------------------|
                Eb|--------3--------------------------|

        Lead

                eb|-----------------------------------|
                Bb|-----------------------------------|
                Gb|--16------14-----------------------|
                Db|---x-x16---x-x16-------------------|
                Ab|--14------12-----------------------|
                Eb|-----------------------------------|

                eb|-----------------------------------|
                Bb|-------------------12-10-8-12-10-8-|
                Gb|--16------14-----------------------|
                Db|---x-x16---x-x8--------------------|
                Ab|--14------12-----------------------|
                Eb|-----------------------------------|

INTERLUDE

        Rhythm

                eb|-----------------------------------|
                Bb|-----------------------------------|
                Gb|-------4-4-4-4-4-------7-7-7-7-7---|         4x
                Db|-2-2-2-4-4-4-4-4-------7-7-7-7-7---|
                Ab|-2-2-2-2-2-2-2-2-5-5-5-5-5-5-5-5---|
                Eb|-0-0-0-----------3-3-3-------------|

        Lead

                eb|-----------------------------------|
                Bb|-----------------------------------|
                Gb|---idle----------------------------|         2x
                Db|-----------------------------------|
                Ab|-----------------------------------|
                Eb|-----------------------------------|

                eb|---------------------------------------|
                Bb|---------------------------------------|
                Gb|--12--12--12--12--12--12--12-11-11-11--|
                Db|---x---x---x---x---x---x--x--x--x--x---|
                Ab|--10--10--10--10--10--10--10-9--9--9---|
                Eb|---------------------------------------|

                eb|---------------------------------------|
                Bb|---------------------------------------|
                Gb|--12--12--12--12--12-12-12-12-12-------|
                Db|---x---x---x---x---x--x-x--x--x--------|
                Ab|--10--10--10--10--10-10-10-10-10-------|
                Eb|---------------------------------------|

VERSE2

        Rhythm

                eb|---------------------------------------------------------------------|
                Bb|---------------------------------------------------------------------|  2x
                Gb|---------------------------------------------------------------------|
                Db|-------14-----14b-------12-----12b--------11-----11b-------9-----9b--|
                Ab|---------------------------------------------------------------------|
                Eb|-0-0-0----0-0-----0-0-0----0-0------0-0-0----0-0-----0-0-0---0-0-----|
                    . . .    . .     . . .    . .      . . .    . .     . . .   . .

        Lead

                eb|-----------------|
                Bb|-----------------|
                Gb|--9--------------|   (very faint sound)
                Db|--x-x64----------|
                Ab|--7--------------|
                Eb|-----------------|

CHORUS

        Rhythm

                eb|-----------------------------------|
                Bb|-----------------------------------|
                Gb|--5-----------7--------------------|         2x
                Db|--5-x8--5-----7-x16----------------|
                Ab|--3-----5-x8--5--------------------|
                Eb|--------3--------------------------|

        Lead

                eb|-----------------------------------|
                Bb|-----------------------------------|
                Gb|--16------14-----------------------|
                Db|---x-x16---x-x16-------------------|
                Ab|--14------12-----------------------|
                Eb|-----------------------------------|

                eb|-----------------------------------|
                Bb|-------------------12-10-8-12-10-8-|
                Gb|--16------14-----------------------|
                Db|---x-x16---x-x8--------------------|
                Ab|--14------12-----------------------|
                Eb|-----------------------------------|

CHORUS2

        Rhythm

                eb|-----------------------------------|
                Bb|-----------------------------------|
                Gb|--5-----------7--------------------|
                Db|--5-x8--5-----7-x16----------------|
                Ab|--3-----5-x8--5--------------------|
                Eb|--------3--------------------------|

                eb|----------------------------|
                Bb|----------------------------|
                Gb|--5-------------------------|
                Db|--5-x8--5-------------------|
                Ab|--3-----5-x8----------------|
                Eb|--------3-------------------|

                eb|------------------------------------------|
                Bb|------------------------------------------|
                Gb|------------------------------------------|
                Db|------------------------------------------|
                Ab|------------------------------------------|
                Eb|-0-0-10-0-10-12-0-10-0-0-10-0-10-12-0-10--|

                eb|------------------------------------------|
                Bb|------------------------------------------|
                Gb|------------------------------------------|
                Db|------------------------------------------|
                Ab|-2~---------------------------------------|
                Eb|-0~---------------------------------------|


        Lead

                eb|-----------------------------------|
                Bb|-----------------------------------|
                Gb|--16------14-----------------------|
                Db|---x-x16---x-x16-------------------|
                Ab|--14------12-----------------------|
                Eb|-----------------------------------|

                eb|--------------|
                Bb|--------------|
                Gb|--16----------|
                Db|---x-x16------|
                Ab|--14----------|
                Eb|--------------|

                eb|----------------------------------|
                Bb|----------------------------------|
                Gb|----------------------------------|
                Db|----------------------------------|
                Ab|-----5---5-7---5-----5---5-7---5--|
                Eb|-0-0---0-----0---0-0---0-----0----|

                eb|------------------|
                Bb|------------------|
                Gb|-9~---------------|
                Db|-x----------------|
                Ab|-7~---------------|
                Eb|------------------|

INTERLUDE2

        Rhythm

                eb|-----------------------------------|
                Bb|--idle-----------------------------|
                Gb|-----------------------------------|
                Db|-----------------------------------|
                Ab|-----------------------------------|
                Eb|-----------------------------------|

                eb|-----------------------------------|
                Bb|-----------------------------------|
                Gb|-----------------------------------|
                Db|-----------------------------------|
                Ab|--2--------------------------------|
                Eb|--0-x32----------------------------|
                     .

        Lead

                eb|-----------------------------------|
                Bb|-----------------------------------|
                Gb|---idle----------------------------|
                Db|-----------------------------------|
                Ab|-----------------------------------|
                Eb|-----------------------------------|

                eb|---------------------------------------------------------------------|
                Bb|---------------------------------------------------------------------|  2x
                Gb|---------------------------------------------------------------------|
                Db|-------14-----14b-------12-----12b--------11-----11b-------9-----9b--|
                Ab|---------------------------------------------------------------------|
                Eb|-0-0-0----0-0-----0-0-0----0-0------0-0-0----0-0-----0-0-0---0-0-----|
                    . . .    . .     . . .    . .      . . .    . .     . . .   . .

BRIDGE

        Rhythm

                eb|-----------------------------------|
                Bb|-----------------------------------|
                Gb|-----------------------------------|
                Db|-2~--------------------------------|
                Ab|-2~--------------------------------|
                Eb|-0~--------------------------------|

                eb|-----------------------------------|
                Bb|-----------------------------------|
                Gb|-----------------------------------|
                Db|-----------------------------------|
                Ab|--2--------------------------------|
                Eb|--0-x32----------------------------|
                     .

        Lead

                eb|-12-0-----------12-0-----------10-0------9-0----------7-0---------5-0-----|
                Bb|------0-10-12-0------0-10-12-0------0-10-----0-8-10-0-----0-7-8-0-----7-0-|  2x
                Gb|--------------------------------------------------------------------------|
                Db|--------------------------------------------------------------------------|
                Ab|--------------------------------------------------------------------------|
                Eb|--------------------------------------------------------------------------|

BRIDGE2

        Rhythm

                eb|-----------------------------------|
                Bb|-----------------------------------|
                Gb|---idle----------------------------|
                Db|-----------------------------------|
                Ab|-----------------------------------|
                Eb|-----------------------------------|

                eb|-----------------------------------|
                Bb|-----------------------------------|
                Gb|---idle----------------------------|
                Db|-----------------------------------|
                Ab|-----------------------------------|
                Eb|-----------------------------------|

                eb|-----------------------------------|
                Bb|-----------------------------------|
                Gb|-----------------------------------|
                Db|-----------------------------------|
                Ab|-----------------------------------|
                Eb|--0-x16----------------------------|
                     .

                eb|-----------------------------------|
                Bb|-----------------------------------|
                Gb|-----------------------------------|
                Db|-----------------------------------|
                Ab|--2--------------------------------|
                Eb|--0-x32----------------------------|
                     .

                eb|-----------------------------------|
                Bb|-----------------------------------|
                Gb|-----------------------------------|
                Db|-----------------------------------|
                Ab|--2--------------------------------|
                Eb|--0-x28----------------------------|
                     .


        Lead

                eb|-----------------------------------|
                Bb|-----------------------------------|
                Gb|---idle----------------------------|
                Db|-----------------------------------|
                Ab|-----------------------------------|
                Eb|-----------------------------------|

                eb|-----------------------------------|
                Bb|-----------------------------------|
                Gb|---idle----------------------------|
                Db|-----------------------------------|
                Ab|-----------------------------------|
                Eb|-----------------------------------|

                eb|------------------------------------|
                Bb|------------------------------------|
                Gb|-9------9------9------9-------------|
                Db|-x------x------x------x-------------|
                Ab|-7------7------7------7-------------|
                Eb|-0------0------0------0-------------|

                eb|-------------------------------|
                Bb|-------------------------------|
                Gb|-9----9----9-----9-------------|
                Db|-x----x----x-----x-------------|
                Ab|-7----7----7-----7-------------|
                Eb|-0----0----0-----0-------------|

ADLIB

        Rhythm


                eb|-----------------------------------|
                Bb|-----------------------------------|
                Gb|--9-----7-----6-----4--------------|    2x
                Db|--x-x8--x-x8--x-x8--x-x8-----------|
                Ab|--7-----5-----4-----2--------------|
                Eb|-----------------------------------|

                eb|-----------------------------------|
                Bb|-----------------------------------|
                Gb|--9-----11-----12-----14-----------|
                Db|--x-x8--x--x8---x-x8---x-x8--------|
                Ab|--7-----9------10-----12-----------|
                Eb|-----------------------------------|

                eb|-----------------------------------|
                Bb|-----------------------------------|
                Gb|--9-----7-----6-----4--------------|
                Db|--x-x8--x-x8--x-x8--x-x8-----------|
                Ab|--7-----5-----4-----2--------------|
                Eb|-----------------------------------|

        Lead

                eb|-12-0-----------12-0-----------10-0------9-0----------7-0---------5-0-----|
                Bb|------0-10-12-0------0-10-12-0------0-10-----0-8-10-0-----0-7-8-0-----7-0-|  2x
                Gb|--------------------------------------------------------------------------|
                Db|--------------------------------------------------------------------------|
                Ab|--------------------------------------------------------------------------|
                Eb|--------------------------------------------------------------------------|

REPEAT CHORUS

CHORUS 3

        Rhythm

                eb|-----------------------------------|
                Bb|-----------------------------------|
                Gb|--5-----------7--------------------|
                Db|--5-x8--5-----7-x16----------------|
                Ab|--3-----5-x8--5--------------------|
                Eb|--------3--------------------------|

                eb|-----------------------------------|
                Bb|-----------------------------------|
                Gb|--5-----------7-----8--------------|
                Db|--5-x8--5-----7-x8--8-x8-----------|
                Ab|--3-----5-x8--5-----6--------------|
                Eb|--------3--------------------------|

        Lead

                eb|-----------------------------------|
                Bb|-----------------------------------|
                Gb|--16------14-----------------------|
                Db|---x-x16---x-x16-------------------|
                Ab|--14------12-----------------------|
                Eb|-----------------------------------|

                eb|-----------------------------------|
                Bb|-----------------------------------|
                Gb|--16------14-----15----------------|
                Db|---x-x16---x-x8---x-x8-------------|
                Ab|--14------12-----13----------------|
                Eb|-----------------------------------|

OUTRO

        Rhythm

                eb|------------------------------------------|
                Bb|------------------------------------------|
                Gb|------------------------------------------|
                Db|------------------------------------------|
                Ab|------------------------------------------|
                Eb|-0-0-10-0-10-12-0-10-0-0-10-0-10-12-0-10--|

                eb|----------------------------------|
                Bb|----------------------------------|
                Gb|----------------------------------|
                Db|--2-------------------------------|
                Ab|--2-------------------------------|
                Eb|--0-------------------------------|

        Lead

                eb|-----------------------------------|
                Bb|-----------------------------------|
                Gb|-----------------------------------|
                Db|-----------------------------------|
                Ab|-----5---5-7---5-----9---9-10---9--|
                Eb|-0-0---0-----0---0-0---0------0----|

                eb|-----------------------------------|
                Bb|-----------------------------------|
                Gb|--9--------------------------------|
                Db|--x--------------------------------|
                Ab|--7--------------------------------|
                Eb|-----------------------------------|

END

Please Rate!,... :o
Suggest correction
Creating personal tab
Creating personal tab
You can edit any tab online and save it as your Personal.

You can edit, replace or remove any tab part or add personal notes – all changes will be seen only by you.

Personal tabs can be accessed anytime from any device, even offline.
Learn more »
Give kudos to tab author, rate the tab!
1 2 3 4 5
comments
print report bad tab
guest
You may want to rate the tab now too:
select rating
Wanna post a correction for this tab? Suggest correction