Oops, an error
Loading. Please wait.

Follow The Format bass

version 1
version 1

Whole song

Interactive

381 views 1 this week
2 commentsread comments
1 2 3 4 5
x 3
add to favorites
×
Save as Personal and add changes to this tab that will be seen only by you. Learn more ›
×
You can save this tab as Personal to edit and correct it or add notes. All changes will be seen only by you. Learn more »
launch autoscroll
font size
0
reset
guitar tuner
edit
Autoscroll
slow
fast
+/-
esc
set tempo
stop
Author
Difficulty
Song: Follow The Format
Artist: Taking Back Sunday
Album: Where you want to be (B-Side)
Tabbed By: Blinkman5

Verse:
e|------------------------------------------------------|
B|------------------------------------------------------|
G|------------------------------------------------------|
D|---------2-----------------2--------------2-----------| 4x
A|------------2--4------2---------2----0----------------|
E|-0----0----------------------------------------4------|

Pre-Chorus:
e|------------------------------------------------------|
B|------------------------------------------------------|
G|------------------------------------------------------|
D|------------------------------------------------------| 1x
A|------------------------------------------------------|
E|-0-0-0-0-0-0-0-0-0-0-0-0-2-2-2-2-2-2-2-2-2-2-2-2-5~---|

Chorus
e|------------------------------------------------------|
B|------------------------------------------------------|
G|------------------------------------------------------|
D|---------2-----------------2--------------2-----------| 2x
A|------------2--4------2---------2----0----------------|
E|-0----0----------------------------------------4------|

Verse:
e|------------------------------------------------------|
B|------------------------------------------------------|
G|------------------------------------------------------|
D|---------2-----------------2--------------2-----------| 4x
A|------------2--4------2---------2----0----------------|
E|-0----0----------------------------------------4------|

Pre-Chorus:
e|------------------------------------------------------|
B|------------------------------------------------------|
G|------------------------------------------------------|
D|------------------------------------------------------| 1x
A|------------------------------------------------------|
E|-0-0-0-0-0-0-0-0-0-0-0-0-2-2-2-2-2-2-2-2-2-2-2-2-5~---|

Bridge:
e|------------------------------------------------------------------------------------------------|
B|------------------------------------------------------------------------------------------------|
G|------------------------------------------------------------------------------------------------|
D|------------------------------------------------------------------------------------------------| 
A|-------------------------------------------------7--7-7-7-7--7--7-7-7-7--9--9-9-9-9--7--7-7-8-8-|
E|-9--9-9-9-9--9--9-9-9-9--5--5-5-5-5--5--5-5-5-5-------------------------------------------------|
3x

e|------------------------------------------------------|
B|------------------------------------------------------|
G|------------------------------------------------------|
D|------------------------------------------------------| 1x
A|------------------------------------------------------|
E|-9--9-9-9-9--9--9-9-9-9--5-5-5-5-5-5-5-5-5-5-5-5------|

Interlude:
e|---------------------------------------------------------------------------------|
B|---------------------------------------------------------------------------------|
G|---------------------------------------------------------------------------------|
D|---------------------------------------------------------------------------------| 4x
A|---------------------------------------------------------------------------------|
E|-0~----------------------2~----------------------5~------------------------------|

e|-----|
B|-----|
G|-----|
D|-----|
A|-----|
E|-5~--|

End Chorus:
e|------------------------------------------------------|
B|------------------------------------------------------|
G|------------------------------------------------------|
D|---------2-----------------2--------------2-----------| 4x
A|------------2--4------2---------2----0----------------|
E|-0----0----------------------------------------4------|

Outro:

e|-----|
B|-----|
G|-----|
D|-----|
A|-----|
E|-0~--|





            
            
Suggest correction
Creating personal tab
Creating personal tab
You can edit any tab online and save it as your Personal.

You can edit, replace or remove any tab part or add personal notes – all changes will be seen only by you.

Personal tabs can be accessed anytime from any device, even offline.
Learn more »
Give kudos to tab author, rate the tab!
1 2 3 4 5
comments
print report bad tab
2 comments total.
0 reply
Blinkman5 500 Jul 19, 2007 01:23 AM

every1! I made a mistake. in the verses, chorus, and end chorus this is how it is really played:
e|------------------------------------------------------|
B|------------------------------------------------------|
G|------------------------------------------------------|
D|---------2-----------------2--------------2-----------|
A|------2-----2--4------2---------2----0----------------|
E|-0---------------------------------------------4------|

0 reply
jeremytabs 30 Jul 19, 2007 01:24 AM

perfect. I see, not much of a mistake anyways

guest
You may want to rate the tab now too:
select rating
Wanna post a correction for this tab? Suggest correction