Oops, an error
Loading. Please wait.

Ghost Man On Third Bass

version 1
version 1

Whole song

Interactive

1,250 views 1 this week
no commentswrite comment
1 2 3 4 5
2 more votes to show rating
add to favorites
launch autoscroll
font size
0
reset
guitar tuner
×
Best way to learn
"Ghost Man On Third"
Autoscroll
slow
fast
+/-
esc
set tempo
stop
Author
 
 Verses(versos):
G|----------------------------------------------|
D|-------------9-------------7-------5--5--5----|
A|-3---6h777-7---7-7h9-5-555---5h7-3--33-3--3---|
E|--0-------------------------------------------|

 pre-chorus "everything..."
G|--------------------------|
D|--------------------------|
A|-3333333333333333---------|
E|--------------------------|

 chorus(coro)"Its a campaign.."
G|-------------------------------------------|
D|----7-----7------9-----9-------------------|
A|-55--5-55---5-77--7-77--7-33333333333333---|
E|-------------------------------------------|

  Then(entonces):
  Verse
  Chorus
 
 Bridge(puente)"Dont let me down"
G|---------------------------------------------------------|
D|-------------------9--9----7--7----5--5----7--7----------|
A|-7-let ring------77-77-7-55-55-5-33-33-3-55-55-555555----|
E|-0-(deja sonar)------------------------------------------|

 Outro: "This is what living like this does"
G|------------------------------------------------------|
D|------------------------------------------------------|
A|-777777777777-555555555555-333333333333-555555555555--|
E|------------------------------------------------------|

And Finito.
            
Suggest correction
Give kudos to tab author, rate the tab!
1 2 3 4 5
comments
print report bad tab
guest
You may want to rate the tab now too:
select rating
Wanna post a correction for this tab? Suggest correction