Oops, an error
Loading. Please wait.

Liar It Takes One To Know One bass

version 1
version 1

Whole song

Interactive

11,357 views 6 this week
5 commentsread comments
1 2 3 4 5
x 4
add to favorites
×
Save as Personal and add changes to this tab that will be seen only by you. Learn more ›
×
You can save this tab as Personal to edit and correct it or add notes. All changes will be seen only by you. Learn more »
launch autoscroll
font size
0
reset
guitar tuner
edit
Autoscroll
slow
fast
+/-
esc
set tempo
stop
Author
Difficulty
Hello! This is my first try posting my tab. I think this is the closest one rather than
I just wanna share the pleasure of playing music so, I'm really happy if this help you.
tried to make this tab as cleary as I could but if you found any mistakes or 
to read I'm likely to accept it and make it better. Have a Fun!

(I'm Japanese so my English isn't perfect....)

How to see my tab
G|----------------|
D|----------------|
A|----------------|   =8count
E|----------------|

so,one bar(-)is 1/16

Intro

G|----------------|
D|66666666--------|x11
A|----------------|
E|----------------|

G|----------------|
D|6666666/g-------|
A|----------------|
E|----------------|

Verse
G|---------------|
D|---------------|
A|--6------------|  x3
E|44-4-44~~~~~~~~|

G|---------------|
D|---------------|
A|--4------------|
E|22-2-2h3~~~~~x/g| X1

Pre-Chorus(0:35)
G|---------------------------------------------------------------|
D|---------------------------------------------------------------|
A|---------------------------------------------------------------|
E|000000003333333344444444444422220000000033333334444444444444444| x1


Chorus
G|-----------------------------------------------------------------|
D|-----------------------------------------------------------------|
A|---------------- 2222222222224444--------------------------------|
E|44444444444442222----------------44444444222222220000000000000000|x2

Interrude(1:06~1:11)

G|----------------|
D|66666666--------|x3
A|----------------|
E|----------------|

G|----------------|
D|6-6-6-----------|
A|-----6/g--------|
E|----------------|


Verse2(1:12~)
G|-------------------------------|
D|------------------4------------|
A|--6-------------22-2-22~~~~~~4~|
E|44-4-44~~~~~222~---------------|

G|-------------------------------|
D|-------------------------------|
A|--6--------------4-------------|
E|44-4-42~~~~~~~~22-2-2h3~~~~~x/g|

Pre-Chorus2(same)
Chorus2(same)


Bridge (2:02~)
G|----------------|
D|----------------|
A|--------1~~~~~~~|
E|0~~~~~~~--------|

G|----------------------------------------------------------------|
D|----------------------------------------------------------------|
A|2222222222224444----------------22222222------------------------|
E|----------------4444444444442222--------555555553333333333333333|x2

Outro
G|---------------------------------|
D|---------------------------------|
A|--1~-----------------------------|
E|2~--4/g-xx-x4~xx-x4~xx-x4~xx-x4~g|

            
            
Suggest correction
Creating personal tab
Creating personal tab
You can edit any tab online and save it as your Personal.

You can edit, replace or remove any tab part or add personal notes – all changes will be seen only by you.

Personal tabs can be accessed anytime from any device, even offline.
Learn more »
comments
print report bad tab
5 comments total. Showing first comments.
+1 reply
FenixOfDeath 30 Jun 16, 2008 06:54 PM

ok heres a word in english you might not know, badAss as in this tab is badAss haha. good job man

0 reply
amped27 10 Feb 16, 2010 01:28 PM

What do the X and G mean?

0 reply
amped27 10 Feb 16, 2010 01:47 PM

could you possible upload a video the verse part doesn't make any sense to me

guest
You may want to rate the tab now too:
select rating
Wanna post a correction for this tab? Suggest correction